  0
SECTION
  2
HEADER
  9
$ACADVER
  1
AC1015
  9
$ACADMAINTVER
 70
     6
  9
$DWGCODEPAGE
  3
ASCII
  9
$INSBASE
 10
0.0
 20
0.0
 30
0.0
  9
$EXTMIN
 10
1.000000000000000E+20
 20
1.000000000000000E+20
 30
1.000000000000000E+20
  9
$EXTMAX
 10
-1.000000000000000E+20
 20
-1.000000000000000E+20
 30
-1.000000000000000E+20
  9
$LIMMIN
 10
0.0
 20
0.0
  9
$LIMMAX
 10
12.0
 20
9.0
  9
$ORTHOMODE
 70
     0
  9
$REGENMODE
 70
     1
  9
$FILLMODE
 70
     1
  9
$QTEXTMODE
 70
     0
  9
$MIRRTEXT
 70
     1
  9
$LTSCALE
 40
1.0
  9
$ATTMODE
 70
     1
  9
$TEXTSIZE
 40
0.2
  9
$TRACEWID
 40
0.05
  9
$TEXTSTYLE
  7
Standard
  9
$CLAYER
  8
0
  9
$CELTYPE
  6
ByLayer
  9
$CECOLOR
 62
   256
  9
$CELTSCALE
 40
1.0
  9
$DISPSILH
 70
     0
  9
$DIMSCALE
 40
1.0
  9
$DIMASZ
 40
0.18
  9
$DIMEXO
 40
0.0625
  9
$DIMDLI
 40
0.38
  9
$DIMRND
 40
0.0
  9
$DIMDLE
 40
0.0
  9
$DIMEXE
 40
0.18
  9
$DIMTP
 40
0.0
  9
$DIMTM
 40
0.0
  9
$DIMTXT
 40
0.18
  9
$DIMCEN
 40
0.09
  9
$DIMTSZ
 40
0.0
  9
$DIMTOL
 70
     0
  9
$DIMLIM
 70
     0
  9
$DIMTIH
 70
     1
  9
$DIMTOH
 70
     1
  9
$DIMSE1
 70
     0
  9
$DIMSE2
 70
     0
  9
$DIMTAD
 70
     0
  9
$DIMZIN
 70
     0
  9
$DIMBLK
  1

  9
$DIMASO
 70
     1
  9
$DIMSHO
 70
     1
  9
$DIMPOST
  1

  9
$DIMAPOST
  1

  9
$DIMALT
 70
     0
  9
$DIMALTD
 70
     2
  9
$DIMALTF
 40
25.4
  9
$DIMLFAC
 40
1.0
  9
$DIMTOFL
 70
     0
  9
$DIMTVP
 40
0.0
  9
$DIMTIX
 70
     0
  9
$DIMSOXD
 70
     0
  9
$DIMSAH
 70
     0
  9
$DIMBLK1
  1

  9
$DIMBLK2
  1

  9
$DIMSTYLE
  2
Standard
  9
$DIMCLRD
 70
     0
  9
$DIMCLRE
 70
     0
  9
$DIMCLRT
 70
     0
  9
$DIMTFAC
 40
1.0
  9
$DIMGAP
 40
0.09
  9
$DIMJUST
 70
     0
  9
$DIMSD1
 70
     0
  9
$DIMSD2
 70
     0
  9
$DIMTOLJ
 70
     1
  9
$DIMTZIN
 70
     0
  9
$DIMALTZ
 70
     0
  9
$DIMALTTZ
 70
     0
  9
$DIMUPT
 70
     0
  9
$DIMDEC
 70
     4
  9
$DIMTDEC
 70
     4
  9
$DIMALTU
 70
     2
  9
$DIMALTTD
 70
     2
  9
$DIMTXSTY
  7
Standard
  9
$DIMAUNIT
 70
     0
  9
$DIMADEC
 70
     0
  9
$DIMALTRND
 40
0.0
  9
$DIMAZIN
 70
     0
  9
$DIMDSEP
 70
    46
  9
$DIMATFIT
 70
     3
  9
$DIMFRAC
 70
     0
  9
$DIMLDRBLK
  1

  9
$DIMLUNIT
 70
     2
  9
$DIMLWD
 70
    -2
  9
$DIMLWE
 70
    -2
  9
$DIMTMOVE
 70
     0
  9
$LUNITS
 70
     2
  9
$LUPREC
 70
     4
  9
$SKETCHINC
 40
0.1
  9
$FILLETRAD
 40
0.5
  9
$AUNITS
 70
     0
  9
$AUPREC
 70
     0
  9
$MENU
  1
.
  9
$ELEVATION
 40
0.0
  9
$PELEVATION
 40
0.0
  9
$THICKNESS
 40
0.0
  9
$LIMCHECK
 70
     0
  9
$CHAMFERA
 40
0.5
  9
$CHAMFERB
 40
0.5
  9
$CHAMFERC
 40
1.0
  9
$CHAMFERD
 40
0.0
  9
$SKPOLY
 70
     0
  9
$TDCREATE
 40
2456069.603723229
  9
$TDUCREATE
 40
2456069.520389896
  9
$TDUPDATE
 40
2456069.603723241
  9
$TDUUPDATE
 40
2456069.520389908
  9
$TDINDWG
 40
0.0000000116
  9
$TDUSRTIMER
 40
0.0000000116
  9
$USRTIMER
 70
     1
  9
$ANGBASE
 50
0.0
  9
$ANGDIR
 70
     0
  9
$PDMODE
 70
     0
  9
$PDSIZE
 40
0.0
  9
$PLINEWID
 40
0.0
  9
$SPLFRAME
 70
     0
  9
$SPLINETYPE
 70
     6
  9
$SPLINESEGS
 70
     8
  9
$HANDSEED
  5
204
  9
$SURFTAB1
 70
     6
  9
$SURFTAB2
 70
     6
  9
$SURFTYPE
 70
     6
  9
$SURFU
 70
     6
  9
$SURFV
 70
     6
  9
$UCSBASE
  2

  9
$UCSNAME
  2

  9
$UCSORG
 10
0.0
 20
0.0
 30
0.0
  9
$UCSXDIR
 10
1.0
 20
0.0
 30
0.0
  9
$UCSYDIR
 10
0.0
 20
1.0
 30
0.0
  9
$UCSORTHOREF
  2

  9
$UCSORTHOVIEW
 70
     0
  9
$UCSORGTOP
 10
0.0
 20
0.0
 30
0.0
  9
$UCSORGBOTTOM
 10
0.0
 20
0.0
 30
0.0
  9
$UCSORGLEFT
 10
0.0
 20
0.0
 30
0.0
  9
$UCSORGRIGHT
 10
0.0
 20
0.0
 30
0.0
  9
$UCSORGFRONT
 10
0.0
 20
0.0
 30
0.0
  9
$UCSORGBACK
 10
0.0
 20
0.0
 30
0.0
  9
$PUCSBASE
  2

  9
$PUCSNAME
  2

  9
$PUCSORG
 10
0.0
 20
0.0
 30
0.0
  9
$PUCSXDIR
 10
1.0
 20
0.0
 30
0.0
  9
$PUCSYDIR
 10
0.0
 20
1.0
 30
0.0
  9
$PUCSORTHOREF
  2

  9
$PUCSORTHOVIEW
 70
     0
  9
$PUCSORGTOP
 10
0.0
 20
0.0
 30
0.0
  9
$PUCSORGBOTTOM
 10
0.0
 20
0.0
 30
0.0
  9
$PUCSORGLEFT
 10
0.0
 20
0.0
 30
0.0
  9
$PUCSORGRIGHT
 10
0.0
 20
0.0
 30
0.0
  9
$PUCSORGFRONT
 10
0.0
 20
0.0
 30
0.0
  9
$PUCSORGBACK
 10
0.0
 20
0.0
 30
0.0
  9
$USERI1
 70
     0
  9
$USERI2
 70
     0
  9
$USERI3
 70
     0
  9
$USERI4
 70
     0
  9
$USERI5
 70
     0
  9
$USERR1
 40
0.0
  9
$USERR2
 40
0.0
  9
$USERR3
 40
0.0
  9
$USERR4
 40
0.0
  9
$USERR5
 40
0.0
  9
$WORLDVIEW
 70
     1
  9
$SHADEDGE
 70
     3
  9
$SHADEDIF
 70
    70
  9
$TILEMODE
 70
     1
  9
$MAXACTVP
 70
    64
  9
$PINSBASE
 10
0.0
 20
0.0
 30
0.0
  9
$PLIMCHECK
 70
     0
  9
$PEXTMIN
 10
1.000000000000000E+20
 20
1.000000000000000E+20
 30
1.000000000000000E+20
  9
$PEXTMAX
 10
-1.000000000000000E+20
 20
-1.000000000000000E+20
 30
-1.000000000000000E+20
  9
$PLIMMIN
 10
0.0
 20
0.0
  9
$PLIMMAX
 10
12.0
 20
9.0
  9
$UNITMODE
 70
     0
  9
$VISRETAIN
 70
     1
  9
$PLINEGEN
 70
     0
  9
$PSLTSCALE
 70
     1
  9
$TREEDEPTH
 70
  3020
  9
$CMLSTYLE
  2
Standard
  9
$CMLJUST
 70
     0
  9
$CMLSCALE
 40
1.0
  9
$PROXYGRAPHICS
 70
     1
  9
$MEASUREMENT
 70
     0
  9
$CELWEIGHT
370
    -1
  9
$ENDCAPS
280
     0
  9
$JOINSTYLE
280
     0
  9
$LWDISPLAY
290
     1
  9
$INSUNITS
 70
     1
  9
$HYPERLINKBASE
  1

  9
$STYLESHEET
  1

  9
$XEDIT
290
     1
  9
$CEPSNTYPE
380
     0
  9
$PSTYLEMODE
290
     1
  9
$FINGERPRINTGUID
  2
{122008D2-8C82-46B2-A7BD-6ABFE7B48703}
  9
$VERSIONGUID
  2
{FAEB1C32-E019-11D5-929B-00C0DF256EC4}
  9
$EXTNAMES
290
     1
  9
$PSVPSCALE
 40
0.0
  9
$OLESTARTUP
290
     0
  0
ENDSEC
  0
SECTION
  2
CLASSES
  0
CLASS
  1
ACDBDICTIONARYWDFLT
  2
AcDbDictionaryWithDefault
  3
ObjectDBX Classes
 90
        0
280
     0
281
     0
  0
CLASS
  1
VISUALSTYLE
  2
AcDbVisualStyle
  3
ObjectDBX Classes
 90
     4095
280
     0
281
     0
  0
CLASS
  1
ACDBPLACEHOLDER
  2
AcDbPlaceHolder
  3
ObjectDBX Classes
 90
        0
280
     0
281
     0
  0
CLASS
  1
LAYOUT
  2
AcDbLayout
  3
ObjectDBX Classes
 90
        0
280
     0
281
     0
  0
ENDSEC
  0
SECTION
  2
TABLES
  0
TABLE
  2
VPORT
  5
8
330
0
100
AcDbSymbolTable
 70
     1
  0
VPORT
  5
29
330
8
100
AcDbSymbolTableRecord
100
AcDbViewportTableRecord
  2
*Active
 70
     0
 10
0.0
 20
0.0
 11
1.0
 21
1.0
 12
0.0
 22
0.0
 13
0.0
 23
0.0
 14
0.5
 24
0.5
 15
0.5
 25
0.5
 16
0.0
 26
0.0
 36
1.0
 17
249.9961198552972
 27
24.99452013104345
 37
0.0
 40
2.891441953945854
 41
1.401678343774879
 42
50.0
 43
0.0
 44
0.0
 50
0.0
 51
0.0
 71
     0
 72
   100
 73
     1
 74
     3
 75
     0
 76
     0
 77
     0
 78
     0
281
     0
 65
     1
110
0.0
120
0.0
130
0.0
111
1.0
121
0.0
131
0.0
112
0.0
122
1.0
132
0.0
 79
     0
146
0.0
  0
ENDTAB
  0
TABLE
  2
LTYPE
  5
5
330
0
100
AcDbSymbolTable
 70
     1
  0
LTYPE
  5
14
330
5
100
AcDbSymbolTableRecord
100
AcDbLinetypeTableRecord
  2
ByBlock
 70
     0
  3

 72
    65
 73
     0
 40
0.0
  0
LTYPE
  5
15
330
5
100
AcDbSymbolTableRecord
100
AcDbLinetypeTableRecord
  2
ByLayer
 70
     0
  3

 72
    65
 73
     0
 40
0.0
  0
LTYPE
  5
16
330
5
100
AcDbSymbolTableRecord
100
AcDbLinetypeTableRecord
  2
Continuous
 70
     0
  3
Solid line
 72
    65
 73
     0
 40
0.0
  0
ENDTAB
  0
TABLE
  2
LAYER
  5
2
330
0
100
AcDbSymbolTable
 70
     2
  0
LAYER
  5
10
330
2
100
AcDbSymbolTableRecord
100
AcDbLayerTableRecord
  2
0
 70
     0
 62
     7
  6
Continuous
370
    -3
390
F
  0
LAYER
  5
3B
330
2
100
AcDbSymbolTableRecord
100
AcDbLayerTableRecord
  2
Livello 1
 70
     0
 62
     7
  6
Continuous
370
    -3
390
F
  0
ENDTAB
  0
TABLE
  2
STYLE
  5
3
330
0
100
AcDbSymbolTable
 70
     1
  0
STYLE
  5
11
330
3
100
AcDbSymbolTableRecord
100
AcDbTextStyleTableRecord
  2
Standard
 70
     0
 40
0.0
 41
1.0
 50
0.0
 71
     0
 42
0.2
  3
txt
  4

  0
ENDTAB
  0
TABLE
  2
VIEW
  5
6
330
0
100
AcDbSymbolTable
 70
     0
  0
ENDTAB
  0
TABLE
  2
UCS
  5
7
330
0
100
AcDbSymbolTable
 70
     0
  0
ENDTAB
  0
TABLE
  2
APPID
  5
9
330
0
100
AcDbSymbolTable
 70
     1
  0
APPID
  5
12
330
9
100
AcDbSymbolTableRecord
100
AcDbRegAppTableRecord
  2
ACAD
 70
     0
  0
ENDTAB
  0
TABLE
  2
DIMSTYLE
  5
A
330
0
100
AcDbSymbolTable
 70
     1
100
AcDbDimStyleTable
  0
DIMSTYLE
105
27
330
A
100
AcDbSymbolTableRecord
100
AcDbDimStyleTableRecord
  2
Standard
 70
     0
340
11
  0
ENDTAB
  0
TABLE
  2
BLOCK_RECORD
  5
1
330
0
100
AcDbSymbolTable
 70
    70
  0
BLOCK_RECORD
  5
1F
330
1
100
AcDbSymbolTableRecord
100
AcDbBlockTableRecord
  2
*Model_Space
340
22
  0
BLOCK_RECORD
  5
1B
330
1
100
AcDbSymbolTableRecord
100
AcDbBlockTableRecord
  2
*Paper_Space
340
1E
  0
BLOCK_RECORD
  5
23
330
1
100
AcDbSymbolTableRecord
100
AcDbBlockTableRecord
  2
*Paper_Space0
340
26
  0
BLOCK_RECORD
  5
3C
330
1
100
AcDbSymbolTableRecord
100
AcDbBlockTableRecord
  2
block 2
340
0
102
{BLKREFS
331
3D
102
}
  0
BLOCK_RECORD
  5
40
330
1
100
AcDbSymbolTableRecord
100
AcDbBlockTableRecord
  2
block 3
340
0
102
{BLKREFS
331
41
102
}
  0
BLOCK_RECORD
  5
44
330
1
100
AcDbSymbolTableRecord
100
AcDbBlockTableRecord
  2
block 4
340
0
102
{BLKREFS
331
45
102
}
  0
BLOCK_RECORD
  5
48
330
1
100
AcDbSymbolTableRecord
100
AcDbBlockTableRecord
  2
block 5
340
0
102
{BLKREFS
331
49
102
}
  0
BLOCK_RECORD
  5
4C
330
1
100
AcDbSymbolTableRecord
100
AcDbBlockTableRecord
  2
block 6
340
0
102
{BLKREFS
331
4D
102
}
  0
BLOCK_RECORD
  5
50
330
1
100
AcDbSymbolTableRecord
100
AcDbBlockTableRecord
  2
block 7
340
0
102
{BLKREFS
331
51
102
}
  0
BLOCK_RECORD
  5
5A
330
1
100
AcDbSymbolTableRecord
100
AcDbBlockTableRecord
  2
block 8
340
0
102
{BLKREFS
331
5B
102
}
  0
BLOCK_RECORD
  5
65
330
1
100
AcDbSymbolTableRecord
100
AcDbBlockTableRecord
  2
block 9
340
0
102
{BLKREFS
331
66
102
}
  0
BLOCK_RECORD
  5
6A
330
1
100
AcDbSymbolTableRecord
100
AcDbBlockTableRecord
  2
block 10
340
0
102
{BLKREFS
331
6B
102
}
  0
BLOCK_RECORD
  5
6F
330
1
100
AcDbSymbolTableRecord
100
AcDbBlockTableRecord
  2
block 11
340
0
102
{BLKREFS
331
70
102
}
  0
BLOCK_RECORD
  5
74
330
1
100
AcDbSymbolTableRecord
100
AcDbBlockTableRecord
  2
block 12
340
0
102
{BLKREFS
331
75
102
}
  0
BLOCK_RECORD
  5
79
330
1
100
AcDbSymbolTableRecord
100
AcDbBlockTableRecord
  2
block 13
340
0
102
{BLKREFS
331
7A
102
}
  0
BLOCK_RECORD
  5
85
330
1
100
AcDbSymbolTableRecord
100
AcDbBlockTableRecord
  2
block 14
340
0
102
{BLKREFS
331
86
102
}
  0
BLOCK_RECORD
  5
92
330
1
100
AcDbSymbolTableRecord
100
AcDbBlockTableRecord
  2
block 15
340
0
102
{BLKREFS
331
93
102
}
  0
BLOCK_RECORD
  5
9E
330
1
100
AcDbSymbolTableRecord
100
AcDbBlockTableRecord
  2
block 16
340
0
102
{BLKREFS
331
9F
102
}
  0
BLOCK_RECORD
  5
AB
330
1
100
AcDbSymbolTableRecord
100
AcDbBlockTableRecord
  2
block 17
340
0
102
{BLKREFS
331
AC
102
}
  0
BLOCK_RECORD
  5
B0
330
1
100
AcDbSymbolTableRecord
100
AcDbBlockTableRecord
  2
block 18
340
0
102
{BLKREFS
331
B1
102
}
  0
BLOCK_RECORD
  5
B5
330
1
100
AcDbSymbolTableRecord
100
AcDbBlockTableRecord
  2
block 19
340
0
102
{BLKREFS
331
B6
102
}
  0
BLOCK_RECORD
  5
BA
330
1
100
AcDbSymbolTableRecord
100
AcDbBlockTableRecord
  2
block 20
340
0
102
{BLKREFS
331
BB
102
}
  0
BLOCK_RECORD
  5
BF
330
1
100
AcDbSymbolTableRecord
100
AcDbBlockTableRecord
  2
block 21
340
0
102
{BLKREFS
331
C0
102
}
  0
BLOCK_RECORD
  5
C7
330
1
100
AcDbSymbolTableRecord
100
AcDbBlockTableRecord
  2
block 22
340
0
102
{BLKREFS
331
C8
102
}
  0
BLOCK_RECORD
  5
CF
330
1
100
AcDbSymbolTableRecord
100
AcDbBlockTableRecord
  2
block 23
340
0
102
{BLKREFS
331
D0
102
}
  0
BLOCK_RECORD
  5
D4
330
1
100
AcDbSymbolTableRecord
100
AcDbBlockTableRecord
  2
block 24
340
0
102
{BLKREFS
331
D5
102
}
  0
BLOCK_RECORD
  5
D9
330
1
100
AcDbSymbolTableRecord
100
AcDbBlockTableRecord
  2
block 25
340
0
102
{BLKREFS
331
DA
102
}
  0
BLOCK_RECORD
  5
DE
330
1
100
AcDbSymbolTableRecord
100
AcDbBlockTableRecord
  2
block 26
340
0
102
{BLKREFS
331
DF
102
}
  0
BLOCK_RECORD
  5
E3
330
1
100
AcDbSymbolTableRecord
100
AcDbBlockTableRecord
  2
block 27
340
0
102
{BLKREFS
331
E4
102
}
  0
BLOCK_RECORD
  5
E8
330
1
100
AcDbSymbolTableRecord
100
AcDbBlockTableRecord
  2
block 28
340
0
102
{BLKREFS
331
E9
102
}
  0
BLOCK_RECORD
  5
ED
330
1
100
AcDbSymbolTableRecord
100
AcDbBlockTableRecord
  2
block 29
340
0
102
{BLKREFS
331
EE
102
}
  0
BLOCK_RECORD
  5
F2
330
1
100
AcDbSymbolTableRecord
100
AcDbBlockTableRecord
  2
block 30
340
0
102
{BLKREFS
331
F3
102
}
  0
BLOCK_RECORD
  5
F7
330
1
100
AcDbSymbolTableRecord
100
AcDbBlockTableRecord
  2
block 31
340
0
102
{BLKREFS
331
F8
102
}
  0
BLOCK_RECORD
  5
FC
330
1
100
AcDbSymbolTableRecord
100
AcDbBlockTableRecord
  2
block 32
340
0
102
{BLKREFS
331
FD
102
}
  0
BLOCK_RECORD
  5
101
330
1
100
AcDbSymbolTableRecord
100
AcDbBlockTableRecord
  2
block 33
340
0
102
{BLKREFS
331
102
102
}
  0
BLOCK_RECORD
  5
106
330
1
100
AcDbSymbolTableRecord
100
AcDbBlockTableRecord
  2
block 34
340
0
102
{BLKREFS
331
107
102
}
  0
BLOCK_RECORD
  5
111
330
1
100
AcDbSymbolTableRecord
100
AcDbBlockTableRecord
  2
block 35
340
0
102
{BLKREFS
331
112
102
}
  0
BLOCK_RECORD
  5
116
330
1
100
AcDbSymbolTableRecord
100
AcDbBlockTableRecord
  2
block 36
340
0
102
{BLKREFS
331
117
102
}
  0
BLOCK_RECORD
  5
11B
330
1
100
AcDbSymbolTableRecord
100
AcDbBlockTableRecord
  2
block 37
340
0
102
{BLKREFS
331
11C
102
}
  0
BLOCK_RECORD
  5
123
330
1
100
AcDbSymbolTableRecord
100
AcDbBlockTableRecord
  2
block 38
340
0
102
{BLKREFS
331
124
102
}
  0
BLOCK_RECORD
  5
12B
330
1
100
AcDbSymbolTableRecord
100
AcDbBlockTableRecord
  2
block 39
340
0
102
{BLKREFS
331
12C
102
}
  0
BLOCK_RECORD
  5
130
330
1
100
AcDbSymbolTableRecord
100
AcDbBlockTableRecord
  2
block 40
340
0
102
{BLKREFS
331
131
102
}
  0
BLOCK_RECORD
  5
135
330
1
100
AcDbSymbolTableRecord
100
AcDbBlockTableRecord
  2
block 41
340
0
102
{BLKREFS
331
136
102
}
  0
BLOCK_RECORD
  5
13D
330
1
100
AcDbSymbolTableRecord
100
AcDbBlockTableRecord
  2
block 42
340
0
102
{BLKREFS
331
13E
102
}
  0
BLOCK_RECORD
  5
145
330
1
100
AcDbSymbolTableRecord
100
AcDbBlockTableRecord
  2
block 43
340
0
102
{BLKREFS
331
146
102
}
  0
BLOCK_RECORD
  5
14A
330
1
100
AcDbSymbolTableRecord
100
AcDbBlockTableRecord
  2
block 44
340
0
102
{BLKREFS
331
14B
102
}
  0
BLOCK_RECORD
  5
14F
330
1
100
AcDbSymbolTableRecord
100
AcDbBlockTableRecord
  2
block 45
340
0
102
{BLKREFS
331
150
102
}
  0
BLOCK_RECORD
  5
154
330
1
100
AcDbSymbolTableRecord
100
AcDbBlockTableRecord
  2
block 46
340
0
102
{BLKREFS
331
155
102
}
  0
BLOCK_RECORD
  5
159
330
1
100
AcDbSymbolTableRecord
100
AcDbBlockTableRecord
  2
block 47
340
0
102
{BLKREFS
331
15A
102
}
  0
BLOCK_RECORD
  5
15E
330
1
100
AcDbSymbolTableRecord
100
AcDbBlockTableRecord
  2
block 48
340
0
102
{BLKREFS
331
15F
102
}
  0
BLOCK_RECORD
  5
163
330
1
100
AcDbSymbolTableRecord
100
AcDbBlockTableRecord
  2
block 49
340
0
102
{BLKREFS
331
164
102
}
  0
BLOCK_RECORD
  5
168
330
1
100
AcDbSymbolTableRecord
100
AcDbBlockTableRecord
  2
block 50
340
0
102
{BLKREFS
331
169
102
}
  0
BLOCK_RECORD
  5
16D
330
1
100
AcDbSymbolTableRecord
100
AcDbBlockTableRecord
  2
block 51
340
0
102
{BLKREFS
331
16E
102
}
  0
BLOCK_RECORD
  5
172
330
1
100
AcDbSymbolTableRecord
100
AcDbBlockTableRecord
  2
block 52
340
0
102
{BLKREFS
331
173
102
}
  0
BLOCK_RECORD
  5
177
330
1
100
AcDbSymbolTableRecord
100
AcDbBlockTableRecord
  2
block 53
340
0
102
{BLKREFS
331
178
102
}
  0
BLOCK_RECORD
  5
17C
330
1
100
AcDbSymbolTableRecord
100
AcDbBlockTableRecord
  2
block 54
340
0
102
{BLKREFS
331
17D
102
}
  0
BLOCK_RECORD
  5
181
330
1
100
AcDbSymbolTableRecord
100
AcDbBlockTableRecord
  2
block 55
340
0
102
{BLKREFS
331
182
102
}
  0
BLOCK_RECORD
  5
186
330
1
100
AcDbSymbolTableRecord
100
AcDbBlockTableRecord
  2
block 56
340
0
102
{BLKREFS
331
187
102
}
  0
BLOCK_RECORD
  5
18C
330
1
100
AcDbSymbolTableRecord
100
AcDbBlockTableRecord
  2
block 57
340
0
102
{BLKREFS
331
18D
102
}
  0
BLOCK_RECORD
  5
191
330
1
100
AcDbSymbolTableRecord
100
AcDbBlockTableRecord
  2
block 58
340
0
102
{BLKREFS
331
192
102
}
  0
BLOCK_RECORD
  5
196
330
1
100
AcDbSymbolTableRecord
100
AcDbBlockTableRecord
  2
block 59
340
0
102
{BLKREFS
331
197
102
}
  0
BLOCK_RECORD
  5
1A1
330
1
100
AcDbSymbolTableRecord
100
AcDbBlockTableRecord
  2
block 60
340
0
102
{BLKREFS
331
1A2
102
}
  0
BLOCK_RECORD
  5
1AC
330
1
100
AcDbSymbolTableRecord
100
AcDbBlockTableRecord
  2
block 61
340
0
102
{BLKREFS
331
1AD
102
}
  0
BLOCK_RECORD
  5
1BA
330
1
100
AcDbSymbolTableRecord
100
AcDbBlockTableRecord
  2
block 62
340
0
102
{BLKREFS
331
1BB
102
}
  0
BLOCK_RECORD
  5
1C9
330
1
100
AcDbSymbolTableRecord
100
AcDbBlockTableRecord
  2
block 63
340
0
102
{BLKREFS
331
1CA
102
}
  0
BLOCK_RECORD
  5
1D1
330
1
100
AcDbSymbolTableRecord
100
AcDbBlockTableRecord
  2
block 64
340
0
102
{BLKREFS
331
1D2
102
}
  0
BLOCK_RECORD
  5
1D9
330
1
100
AcDbSymbolTableRecord
100
AcDbBlockTableRecord
  2
block 65
340
0
102
{BLKREFS
331
1DA
102
}
  0
BLOCK_RECORD
  5
1E1
330
1
100
AcDbSymbolTableRecord
100
AcDbBlockTableRecord
  2
block 66
340
0
102
{BLKREFS
331
1E2
102
}
  0
BLOCK_RECORD
  5
1E9
330
1
100
AcDbSymbolTableRecord
100
AcDbBlockTableRecord
  2
block 67
340
0
102
{BLKREFS
331
1EA
102
}
  0
BLOCK_RECORD
  5
1EE
330
1
100
AcDbSymbolTableRecord
100
AcDbBlockTableRecord
  2
block 68
340
0
102
{BLKREFS
331
1EF
102
}
  0
BLOCK_RECORD
  5
1F3
330
1
100
AcDbSymbolTableRecord
100
AcDbBlockTableRecord
  2
block 69
340
0
102
{BLKREFS
331
1F4
102
}
  0
BLOCK_RECORD
  5
1FB
330
1
100
AcDbSymbolTableRecord
100
AcDbBlockTableRecord
  2
block 70
340
0
102
{BLKREFS
331
1FC
102
}
  0
ENDTAB
  0
ENDSEC
  0
SECTION
  2
BLOCKS
  0
BLOCK
  5
20
330
1F
100
AcDbEntity
  8
0
100
AcDbBlockBegin
  2
*Model_Space
 70
     0
 71
     0
 10
0.0
 20
0.0
 30
0.0
  3
*Model_Space
  1

  0
ENDBLK
  5
21
330
1F
100
AcDbEntity
  8
0
100
AcDbBlockEnd
  0
BLOCK
  5
1C
330
1B
100
AcDbEntity
 67
     1
  8
0
100
AcDbBlockBegin
  2
*Paper_Space
 70
     0
 71
     0
 10
0.0
 20
0.0
 30
0.0
  3
*Paper_Space
  1

  0
ENDBLK
  5
1D
330
1B
100
AcDbEntity
 67
     1
  8
0
100
AcDbBlockEnd
  0
BLOCK
  5
24
330
23
100
AcDbEntity
  8
0
100
AcDbBlockBegin
  2
*Paper_Space0
 70
     0
 71
     0
 10
0.0
 20
0.0
 30
0.0
  3
*Paper_Space0
  1

  0
ENDBLK
  5
25
330
23
100
AcDbEntity
  8
0
100
AcDbBlockEnd
  0
BLOCK
  5
3E
330
3C
100
AcDbEntity
  8
0
100
AcDbBlockBegin
  2
block 2
 70
     0
 71
     0
 10
0.0
 20
0.0
 30
0.0
  3
block 2
  1

  0
INSERT
  5
41
330
3C
100
AcDbEntity
  8
Livello 1
100
AcDbBlockReference
  2
block 3
 10
0.0
 20
0.0
 30
0.0
  0
ENDBLK
  5
3F
330
3C
100
AcDbEntity
  8
0
100
AcDbBlockEnd
  0
BLOCK
  5
42
330
40
100
AcDbEntity
  8
0
100
AcDbBlockBegin
  2
block 3
 70
     0
 71
     0
 10
0.0
 20
0.0
 30
0.0
  3
block 3
  1

  0
INSERT
  5
45
330
40
100
AcDbEntity
  8
Livello 1
100
AcDbBlockReference
  2
block 4
 10
0.0
 20
0.0
 30
0.0
  0
ENDBLK
  5
43
330
40
100
AcDbEntity
  8
0
100
AcDbBlockEnd
  0
BLOCK
  5
46
330
44
100
AcDbEntity
  8
0
100
AcDbBlockBegin
  2
block 4
 70
     0
 71
     0
 10
0.0
 20
0.0
 30
0.0
  3
block 4
  1

  0
INSERT
  5
49
330
44
100
AcDbEntity
  8
Livello 1
100
AcDbBlockReference
  2
block 5
 10
0.0
 20
0.0
 30
0.0
  0
ENDBLK
  5
47
330
44
100
AcDbEntity
  8
0
100
AcDbBlockEnd
  0
BLOCK
  5
4A
330
48
100
AcDbEntity
  8
0
100
AcDbBlockBegin
  2
block 5
 70
     0
 71
     0
 10
0.0
 20
0.0
 30
0.0
  3
block 5
  1

  0
INSERT
  5
4D
330
48
100
AcDbEntity
  8
Livello 1
100
AcDbBlockReference
  2
block 6
 10
0.0
 20
0.0
 30
0.0
  0
ENDBLK
  5
4B
330
48
100
AcDbEntity
  8
0
100
AcDbBlockEnd
  0
BLOCK
  5
4E
330
4C
100
AcDbEntity
  8
0
100
AcDbBlockBegin
  2
block 6
 70
     0
 71
     0
 10
0.0
 20
0.0
 30
0.0
  3
block 6
  1

  0
INSERT
  5
51
330
4C
100
AcDbEntity
  8
Livello 1
100
AcDbBlockReference
  2
block 7
 10
0.0
 20
0.0
 30
0.0
  0
INSERT
  5
5B
330
4C
100
AcDbEntity
  8
Livello 1
100
AcDbBlockReference
  2
block 8
 10
0.0
 20
0.0
 30
0.0
  0
INSERT
  5
66
330
4C
100
AcDbEntity
  8
Livello 1
100
AcDbBlockReference
  2
block 9
 10
0.0
 20
0.0
 30
0.0
  0
INSERT
  5
6B
330
4C
100
AcDbEntity
  8
Livello 1
100
AcDbBlockReference
  2
block 10
 10
0.0
 20
0.0
 30
0.0
  0
INSERT
  5
70
330
4C
100
AcDbEntity
  8
Livello 1
100
AcDbBlockReference
  2
block 11
 10
0.0
 20
0.0
 30
0.0
  0
INSERT
  5
75
330
4C
100
AcDbEntity
  8
Livello 1
100
AcDbBlockReference
  2
block 12
 10
0.0
 20
0.0
 30
0.0
  0
INSERT
  5
7A
330
4C
100
AcDbEntity
  8
Livello 1
100
AcDbBlockReference
  2
block 13
 10
0.0
 20
0.0
 30
0.0
  0
INSERT
  5
86
330
4C
100
AcDbEntity
  8
Livello 1
100
AcDbBlockReference
  2
block 14
 10
0.0
 20
0.0
 30
0.0
  0
INSERT
  5
93
330
4C
100
AcDbEntity
  8
Livello 1
100
AcDbBlockReference
  2
block 15
 10
0.0
 20
0.0
 30
0.0
  0
INSERT
  5
9F
330
4C
100
AcDbEntity
  8
Livello 1
100
AcDbBlockReference
  2
block 16
 10
0.0
 20
0.0
 30
0.0
  0
INSERT
  5
AC
330
4C
100
AcDbEntity
  8
Livello 1
100
AcDbBlockReference
  2
block 17
 10
0.0
 20
0.0
 30
0.0
  0
INSERT
  5
B1
330
4C
100
AcDbEntity
  8
Livello 1
100
AcDbBlockReference
  2
block 18
 10
0.0
 20
0.0
 30
0.0
  0
INSERT
  5
B6
330
4C
100
AcDbEntity
  8
Livello 1
100
AcDbBlockReference
  2
block 19
 10
0.0
 20
0.0
 30
0.0
  0
INSERT
  5
BB
330
4C
100
AcDbEntity
  8
Livello 1
100
AcDbBlockReference
  2
block 20
 10
0.0
 20
0.0
 30
0.0
  0
INSERT
  5
C0
330
4C
100
AcDbEntity
  8
Livello 1
100
AcDbBlockReference
  2
block 21
 10
0.0
 20
0.0
 30
0.0
  0
INSERT
  5
C8
330
4C
100
AcDbEntity
  8
Livello 1
100
AcDbBlockReference
  2
block 22
 10
0.0
 20
0.0
 30
0.0
  0
INSERT
  5
D0
330
4C
100
AcDbEntity
  8
Livello 1
100
AcDbBlockReference
  2
block 23
 10
0.0
 20
0.0
 30
0.0
  0
INSERT
  5
D5
330
4C
100
AcDbEntity
  8
Livello 1
100
AcDbBlockReference
  2
block 24
 10
0.0
 20
0.0
 30
0.0
  0
INSERT
  5
DA
330
4C
100
AcDbEntity
  8
Livello 1
100
AcDbBlockReference
  2
block 25
 10
0.0
 20
0.0
 30
0.0
  0
INSERT
  5
DF
330
4C
100
AcDbEntity
  8
Livello 1
100
AcDbBlockReference
  2
block 26
 10
0.0
 20
0.0
 30
0.0
  0
INSERT
  5
E4
330
4C
100
AcDbEntity
  8
Livello 1
100
AcDbBlockReference
  2
block 27
 10
0.0
 20
0.0
 30
0.0
  0
INSERT
  5
E9
330
4C
100
AcDbEntity
  8
Livello 1
100
AcDbBlockReference
  2
block 28
 10
0.0
 20
0.0
 30
0.0
  0
INSERT
  5
EE
330
4C
100
AcDbEntity
  8
Livello 1
100
AcDbBlockReference
  2
block 29
 10
0.0
 20
0.0
 30
0.0
  0
INSERT
  5
F3
330
4C
100
AcDbEntity
  8
Livello 1
100
AcDbBlockReference
  2
block 30
 10
0.0
 20
0.0
 30
0.0
  0
INSERT
  5
F8
330
4C
100
AcDbEntity
  8
Livello 1
100
AcDbBlockReference
  2
block 31
 10
0.0
 20
0.0
 30
0.0
  0
INSERT
  5
FD
330
4C
100
AcDbEntity
  8
Livello 1
100
AcDbBlockReference
  2
block 32
 10
0.0
 20
0.0
 30
0.0
  0
INSERT
  5
102
330
4C
100
AcDbEntity
  8
Livello 1
100
AcDbBlockReference
  2
block 33
 10
0.0
 20
0.0
 30
0.0
  0
INSERT
  5
107
330
4C
100
AcDbEntity
  8
Livello 1
100
AcDbBlockReference
  2
block 34
 10
0.0
 20
0.0
 30
0.0
  0
INSERT
  5
112
330
4C
100
AcDbEntity
  8
Livello 1
100
AcDbBlockReference
  2
block 35
 10
0.0
 20
0.0
 30
0.0
  0
INSERT
  5
117
330
4C
100
AcDbEntity
  8
Livello 1
100
AcDbBlockReference
  2
block 36
 10
0.0
 20
0.0
 30
0.0
  0
INSERT
  5
11C
330
4C
100
AcDbEntity
  8
Livello 1
100
AcDbBlockReference
  2
block 37
 10
0.0
 20
0.0
 30
0.0
  0
INSERT
  5
124
330
4C
100
AcDbEntity
  8
Livello 1
100
AcDbBlockReference
  2
block 38
 10
0.0
 20
0.0
 30
0.0
  0
INSERT
  5
12C
330
4C
100
AcDbEntity
  8
Livello 1
100
AcDbBlockReference
  2
block 39
 10
0.0
 20
0.0
 30
0.0
  0
INSERT
  5
131
330
4C
100
AcDbEntity
  8
Livello 1
100
AcDbBlockReference
  2
block 40
 10
0.0
 20
0.0
 30
0.0
  0
INSERT
  5
136
330
4C
100
AcDbEntity
  8
Livello 1
100
AcDbBlockReference
  2
block 41
 10
0.0
 20
0.0
 30
0.0
  0
INSERT
  5
13E
330
4C
100
AcDbEntity
  8
Livello 1
100
AcDbBlockReference
  2
block 42
 10
0.0
 20
0.0
 30
0.0
  0
INSERT
  5
146
330
4C
100
AcDbEntity
  8
Livello 1
100
AcDbBlockReference
  2
block 43
 10
0.0
 20
0.0
 30
0.0
  0
INSERT
  5
14B
330
4C
100
AcDbEntity
  8
Livello 1
100
AcDbBlockReference
  2
block 44
 10
0.0
 20
0.0
 30
0.0
  0
INSERT
  5
150
330
4C
100
AcDbEntity
  8
Livello 1
100
AcDbBlockReference
  2
block 45
 10
0.0
 20
0.0
 30
0.0
  0
INSERT
  5
155
330
4C
100
AcDbEntity
  8
Livello 1
100
AcDbBlockReference
  2
block 46
 10
0.0
 20
0.0
 30
0.0
  0
INSERT
  5
15A
330
4C
100
AcDbEntity
  8
Livello 1
100
AcDbBlockReference
  2
block 47
 10
0.0
 20
0.0
 30
0.0
  0
INSERT
  5
15F
330
4C
100
AcDbEntity
  8
Livello 1
100
AcDbBlockReference
  2
block 48
 10
0.0
 20
0.0
 30
0.0
  0
INSERT
  5
164
330
4C
100
AcDbEntity
  8
Livello 1
100
AcDbBlockReference
  2
block 49
 10
0.0
 20
0.0
 30
0.0
  0
INSERT
  5
169
330
4C
100
AcDbEntity
  8
Livello 1
100
AcDbBlockReference
  2
block 50
 10
0.0
 20
0.0
 30
0.0
  0
INSERT
  5
16E
330
4C
100
AcDbEntity
  8
Livello 1
100
AcDbBlockReference
  2
block 51
 10
0.0
 20
0.0
 30
0.0
  0
INSERT
  5
173
330
4C
100
AcDbEntity
  8
Livello 1
100
AcDbBlockReference
  2
block 52
 10
0.0
 20
0.0
 30
0.0
  0
INSERT
  5
178
330
4C
100
AcDbEntity
  8
Livello 1
100
AcDbBlockReference
  2
block 53
 10
0.0
 20
0.0
 30
0.0
  0
INSERT
  5
17D
330
4C
100
AcDbEntity
  8
Livello 1
100
AcDbBlockReference
  2
block 54
 10
0.0
 20
0.0
 30
0.0
  0
INSERT
  5
182
330
4C
100
AcDbEntity
  8
Livello 1
100
AcDbBlockReference
  2
block 55
 10
0.0
 20
0.0
 30
0.0
  0
INSERT
  5
187
330
4C
100
AcDbEntity
  8
Livello 1
100
AcDbBlockReference
  2
block 56
 10
0.0
 20
0.0
 30
0.0
  0
INSERT
  5
18D
330
4C
100
AcDbEntity
  8
Livello 1
100
AcDbBlockReference
  2
block 57
 10
0.0
 20
0.0
 30
0.0
  0
INSERT
  5
192
330
4C
100
AcDbEntity
  8
Livello 1
100
AcDbBlockReference
  2
block 58
 10
0.0
 20
0.0
 30
0.0
  0
INSERT
  5
197
330
4C
100
AcDbEntity
  8
Livello 1
100
AcDbBlockReference
  2
block 59
 10
0.0
 20
0.0
 30
0.0
  0
INSERT
  5
1A2
330
4C
100
AcDbEntity
  8
Livello 1
100
AcDbBlockReference
  2
block 60
 10
0.0
 20
0.0
 30
0.0
  0
INSERT
  5
1AD
330
4C
100
AcDbEntity
  8
Livello 1
100
AcDbBlockReference
  2
block 61
 10
0.0
 20
0.0
 30
0.0
  0
INSERT
  5
1BB
330
4C
100
AcDbEntity
  8
Livello 1
100
AcDbBlockReference
  2
block 62
 10
0.0
 20
0.0
 30
0.0
  0
INSERT
  5
1CA
330
4C
100
AcDbEntity
  8
Livello 1
100
AcDbBlockReference
  2
block 63
 10
0.0
 20
0.0
 30
0.0
  0
INSERT
  5
1D2
330
4C
100
AcDbEntity
  8
Livello 1
100
AcDbBlockReference
  2
block 64
 10
0.0
 20
0.0
 30
0.0
  0
INSERT
  5
1DA
330
4C
100
AcDbEntity
  8
Livello 1
100
AcDbBlockReference
  2
block 65
 10
0.0
 20
0.0
 30
0.0
  0
INSERT
  5
1E2
330
4C
100
AcDbEntity
  8
Livello 1
100
AcDbBlockReference
  2
block 66
 10
0.0
 20
0.0
 30
0.0
  0
INSERT
  5
1EA
330
4C
100
AcDbEntity
  8
Livello 1
100
AcDbBlockReference
  2
block 67
 10
0.0
 20
0.0
 30
0.0
  0
INSERT
  5
1EF
330
4C
100
AcDbEntity
  8
Livello 1
100
AcDbBlockReference
  2
block 68
 10
0.0
 20
0.0
 30
0.0
  0
INSERT
  5
1F4
330
4C
100
AcDbEntity
  8
Livello 1
100
AcDbBlockReference
  2
block 69
 10
0.0
 20
0.0
 30
0.0
  0
INSERT
  5
1FC
330
4C
100
AcDbEntity
  8
Livello 1
100
AcDbBlockReference
  2
block 70
 10
0.0
 20
0.0
 30
0.0
  0
ENDBLK
  5
4F
330
4C
100
AcDbEntity
  8
0
100
AcDbBlockEnd
  0
BLOCK
  5
52
330
50
100
AcDbEntity
  8
0
100
AcDbBlockBegin
  2
block 7
 70
     0
 71
     0
 10
0.0
 20
0.0
 30
0.0
  3
block 7
  1

  0
POLYLINE
  5
54
330
50
100
AcDbEntity
  8
Livello 1
370
     0
100
AcDb2dPolyline
 66
     1
 10
0.0
 20
0.0
 30
0.0
  0
VERTEX
  5
55
330
54
100
AcDbEntity
  8
Livello 1
370
     0
100
AcDbVertex
100
AcDb2dVertex
 10
250.4121670860374
 20
25.11086969507421
 30
0.0
  0
VERTEX
  5
56
330
54
100
AcDbEntity
  8
Livello 1
370
     0
100
AcDbVertex
100
AcDb2dVertex
 10
250.4996725690897
 20
25.09660699035625
 30
0.0
  0
VERTEX
  5
57
330
54
100
AcDbEntity
  8
Livello 1
370
     0
100
AcDbVertex
100
AcDb2dVertex
 10
250.4996725690897
 20
24.57698289552289
 30
0.0
  0
VERTEX
  5
58
330
54
100
AcDbEntity
  8
Livello 1
370
     0
100
AcDbVertex
100
AcDb2dVertex
 10
250.4229157910423
 20
24.57698289552289
 30
0.0
  0
SEQEND
  5
59
330
54
100
AcDbEntity
  8
Livello 1
370
     0
  0
ENDBLK
  5
53
330
50
100
AcDbEntity
  8
0
100
AcDbBlockEnd
  0
BLOCK
  5
5C
330
5A
100
AcDbEntity
  8
0
100
AcDbBlockBegin
  2
block 8
 70
     0
 71
     0
 10
0.0
 20
0.0
 30
0.0
  3
block 8
  1

  0
POLYLINE
  5
5E
330
5A
100
AcDbEntity
  8
Livello 1
 62
   250
370
     9
100
AcDb2dPolyline
 66
     1
 10
0.0
 20
0.0
 30
0.0
  0
VERTEX
  5
5F
330
5E
100
AcDbEntity
  8
Livello 1
 62
   250
370
     9
100
AcDbVertex
100
AcDb2dVertex
 10
250.4121670860374
 20
25.11086969507421
 30
0.0
  0
VERTEX
  5
60
330
5E
100
AcDbEntity
  8
Livello 1
 62
   250
370
     9
100
AcDbVertex
100
AcDb2dVertex
 10
250.4996725690897
 20
25.09660699035625
 30
0.0
  0
VERTEX
  5
61
330
5E
100
AcDbEntity
  8
Livello 1
 62
   250
370
     9
100
AcDbVertex
100
AcDb2dVertex
 10
250.4996725690897
 20
24.57698289552289
 30
0.0
  0
VERTEX
  5
62
330
5E
100
AcDbEntity
  8
Livello 1
 62
   250
370
     9
100
AcDbVertex
100
AcDb2dVertex
 10
250.4229157910423
 20
24.57698289552289
 30
0.0
  0
VERTEX
  5
63
330
5E
100
AcDbEntity
  8
Livello 1
 62
   250
370
     9
100
AcDbVertex
100
AcDb2dVertex
 10
250.4121670860374
 20
25.11086969507421
 30
0.0
  0
SEQEND
  5
64
330
5E
100
AcDbEntity
  8
Livello 1
370
     9
  0
ENDBLK
  5
5D
330
5A
100
AcDbEntity
  8
0
100
AcDbBlockEnd
  0
BLOCK
  5
67
330
65
100
AcDbEntity
  8
0
100
AcDbBlockBegin
  2
block 9
 70
     0
 71
     0
 10
0.0
 20
0.0
 30
0.0
  3
block 9
  1

  0
SPLINE
  5
69
330
65
100
AcDbEntity
  8
Livello 1
370
     0
100
AcDbSpline
210
0.0
220
0.0
230
1.0
 70
     8
 71
     3
 72
    26
 73
    22
 74
     0
 42
0.0000000001
 43
0.0000000001
 40
0.0
 40
0.0
 40
0.0
 40
0.0
 40
1.0
 40
1.0
 40
1.0
 40
2.0
 40
2.0
 40
2.0
 40
3.0
 40
3.0
 40
3.0
 40
4.0
 40
4.0
 40
4.0
 40
5.0
 40
5.0
 40
5.0
 40
6.0
 40
6.0
 40
6.0
 40
7.0
 40
7.0
 40
7.0
 40
7.0
 10
250.2869722335131
 20
25.07874415848122
 30
0.0
 10
250.2869722335131
 20
25.07874415848122
 30
0.0
 10
250.2869722335131
 20
24.69776802291702
 30
0.0
 10
250.2869722335131
 20
24.69776802291702
 30
0.0
 10
250.2869722335131
 20
24.69776802291702
 30
0.0
 10
250.2869722335131
 20
24.69776802291702
 30
0.0
 10
250.2869722335131
 20
24.69776802291702
 30
0.0
 10
250.2869722335131
 20
24.68602023956237
 30
0.0
 10
250.2988233698005
 20
24.67647731877282
 30
0.0
 10
250.3134305842942
 20
24.67647731877282
 30
0.0
 10
250.3134305842942
 20
24.67647731877282
 30
0.0
 10
250.3134305842942
 20
24.67647731877282
 30
0.0
 10
250.3134305842942
 20
24.67647731877282
 30
0.0
 10
250.328037798788
 20
24.67647731877282
 30
0.0
 10
250.3398889350754
 20
24.68602023956237
 30
0.0
 10
250.3398889350754
 20
24.69776802291702
 30
0.0
 10
250.3398889350754
 20
24.69776802291702
 30
0.0
 10
250.3398889350754
 20
24.69776802291702
 30
0.0
 10
250.3398889350754
 20
24.69776802291702
 30
0.0
 10
250.3398889350754
 20
24.69776802291702
 30
0.0
 10
250.3398889350754
 20
25.07874415848122
 30
0.0
 10
250.3398889350754
 20
25.07874415848122
 30
0.0
  0
ENDBLK
  5
68
330
65
100
AcDbEntity
  8
0
100
AcDbBlockEnd
  0
BLOCK
  5
6C
330
6A
100
AcDbEntity
  8
0
100
AcDbBlockBegin
  2
block 10
 70
     0
 71
     0
 10
0.0
 20
0.0
 30
0.0
  3
block 10
  1

  0
SPLINE
  5
6E
330
6A
100
AcDbEntity
  8
Livello 1
 62
   250
370
     9
100
AcDbSpline
210
0.0
220
0.0
230
1.0
 70
    11
 71
     3
 72
    32
 73
    28
 74
     0
 42
0.0000000001
 43
0.0000000001
 40
0.0
 40
0.0
 40
0.0
 40
0.0
 40
1.0
 40
1.0
 40
1.0
 40
2.0
 40
2.0
 40
2.0
 40
3.0
 40
3.0
 40
3.0
 40
4.0
 40
4.0
 40
4.0
 40
5.0
 40
5.0
 40
5.0
 40
6.0
 40
6.0
 40
6.0
 40
7.0
 40
7.0
 40
7.0
 40
8.0
 40
8.0
 40
8.0
 40
9.0
 40
9.0
 40
9.0
 40
9.0
 10
250.2869722335131
 20
25.07874415848122
 30
0.0
 10
250.2869722335131
 20
25.07874415848122
 30
0.0
 10
250.2869722335131
 20
24.69776802291702
 30
0.0
 10
250.2869722335131
 20
24.69776802291702
 30
0.0
 10
250.2869722335131
 20
24.69776802291702
 30
0.0
 10
250.2869722335131
 20
24.69776802291702
 30
0.0
 10
250.2869722335131
 20
24.69776802291702
 30
0.0
 10
250.2869722335131
 20
24.68602023956237
 30
0.0
 10
250.2988233698005
 20
24.67647731877282
 30
0.0
 10
250.3134305842942
 20
24.67647731877282
 30
0.0
 10
250.3134305842942
 20
24.67647731877282
 30
0.0
 10
250.3134305842942
 20
24.67647731877282
 30
0.0
 10
250.3134305842942
 20
24.67647731877282
 30
0.0
 10
250.328037798788
 20
24.67647731877282
 30
0.0
 10
250.3398889350754
 20
24.68602023956237
 30
0.0
 10
250.3398889350754
 20
24.69776802291702
 30
0.0
 10
250.3398889350754
 20
24.69776802291702
 30
0.0
 10
250.3398889350754
 20
24.69776802291702
 30
0.0
 10
250.3398889350754
 20
24.69776802291702
 30
0.0
 10
250.3398889350754
 20
24.69776802291702
 30
0.0
 10
250.3398889350754
 20
25.07874415848122
 30
0.0
 10
250.3398889350754
 20
25.07874415848122
 30
0.0
 10
250.3398889350754
 20
25.07874415848122
 30
0.0
 10
250.3398889350754
 20
25.07874415848122
 30
0.0
 10
250.3398889350754
 20
25.07874415848122
 30
0.0
 10
250.3398889350754
 20
25.07874415848122
 30
0.0
 10
250.2869722335131
 20
25.07874415848122
 30
0.0
 10
250.2869722335131
 20
25.07874415848122
 30
0.0
  0
ENDBLK
  5
6D
330
6A
100
AcDbEntity
  8
0
100
AcDbBlockEnd
  0
BLOCK
  5
71
330
6F
100
AcDbEntity
  8
0
100
AcDbBlockBegin
  2
block 11
 70
     0
 71
     0
 10
0.0
 20
0.0
 30
0.0
  3
block 11
  1

  0
SPLINE
  5
73
330
6F
100
AcDbEntity
  8
Livello 1
370
     0
100
AcDbSpline
210
0.0
220
0.0
230
1.0
 70
     8
 71
     3
 72
    26
 73
    22
 74
     0
 42
0.0000000001
 43
0.0000000001
 40
0.0
 40
0.0
 40
0.0
 40
0.0
 40
1.0
 40
1.0
 40
1.0
 40
2.0
 40
2.0
 40
2.0
 40
3.0
 40
3.0
 40
3.0
 40
4.0
 40
4.0
 40
4.0
 40
5.0
 40
5.0
 40
5.0
 40
6.0
 40
6.0
 40
6.0
 40
7.0
 40
7.0
 40
7.0
 40
7.0
 10
249.9675944458613
 20
25.07874415848122
 30
0.0
 10
249.9675944458613
 20
25.07874415848122
 30
0.0
 10
249.9675944458613
 20
24.69776802291702
 30
0.0
 10
249.9675944458613
 20
24.69776802291702
 30
0.0
 10
249.9675944458613
 20
24.69776802291702
 30
0.0
 10
249.9675944458613
 20
24.69776802291702
 30
0.0
 10
249.9675944458613
 20
24.69776802291702
 30
0.0
 10
249.9675944458613
 20
24.68602023956237
 30
0.0
 10
249.9794455821486
 20
24.67647731877282
 30
0.0
 10
249.9940527966424
 20
24.67647731877282
 30
0.0
 10
249.9940527966424
 20
24.67647731877282
 30
0.0
 10
249.9940527966424
 20
24.67647731877282
 30
0.0
 10
249.9940527966424
 20
24.67647731877282
 30
0.0
 10
250.0086600111362
 20
24.67647731877282
 30
0.0
 10
250.0204939219348
 20
24.68602023956237
 30
0.0
 10
250.0204939219348
 20
24.69776802291702
 30
0.0
 10
250.0204939219348
 20
24.69776802291702
 30
0.0
 10
250.0204939219348
 20
24.69776802291702
 30
0.0
 10
250.0204939219348
 20
24.69776802291702
 30
0.0
 10
250.0204939219348
 20
24.69776802291702
 30
0.0
 10
250.0204939219348
 20
25.07874415848122
 30
0.0
 10
250.0204939219348
 20
25.07874415848122
 30
0.0
  0
ENDBLK
  5
72
330
6F
100
AcDbEntity
  8
0
100
AcDbBlockEnd
  0
BLOCK
  5
76
330
74
100
AcDbEntity
  8
0
100
AcDbBlockBegin
  2
block 12
 70
     0
 71
     0
 10
0.0
 20
0.0
 30
0.0
  3
block 12
  1

  0
SPLINE
  5
78
330
74
100
AcDbEntity
  8
Livello 1
 62
   250
370
     9
100
AcDbSpline
210
0.0
220
0.0
230
1.0
 70
    11
 71
     3
 72
    32
 73
    28
 74
     0
 42
0.0000000001
 43
0.0000000001
 40
0.0
 40
0.0
 40
0.0
 40
0.0
 40
1.0
 40
1.0
 40
1.0
 40
2.0
 40
2.0
 40
2.0
 40
3.0
 40
3.0
 40
3.0
 40
4.0
 40
4.0
 40
4.0
 40
5.0
 40
5.0
 40
5.0
 40
6.0
 40
6.0
 40
6.0
 40
7.0
 40
7.0
 40
7.0
 40
8.0
 40
8.0
 40
8.0
 40
9.0
 40
9.0
 40
9.0
 40
9.0
 10
249.9675944458613
 20
25.07874415848122
 30
0.0
 10
249.9675944458613
 20
25.07874415848122
 30
0.0
 10
249.9675944458613
 20
24.69776802291702
 30
0.0
 10
249.9675944458613
 20
24.69776802291702
 30
0.0
 10
249.9675944458613
 20
24.69776802291702
 30
0.0
 10
249.9675944458613
 20
24.69776802291702
 30
0.0
 10
249.9675944458613
 20
24.69776802291702
 30
0.0
 10
249.9675944458613
 20
24.68602023956237
 30
0.0
 10
249.9794455821486
 20
24.67647731877282
 30
0.0
 10
249.9940527966424
 20
24.67647731877282
 30
0.0
 10
249.9940527966424
 20
24.67647731877282
 30
0.0
 10
249.9940527966424
 20
24.67647731877282
 30
0.0
 10
249.9940527966424
 20
24.67647731877282
 30
0.0
 10
250.0086600111362
 20
24.67647731877282
 30
0.0
 10
250.0204939219348
 20
24.68602023956237
 30
0.0
 10
250.0204939219348
 20
24.69776802291702
 30
0.0
 10
250.0204939219348
 20
24.69776802291702
 30
0.0
 10
250.0204939219348
 20
24.69776802291702
 30
0.0
 10
250.0204939219348
 20
24.69776802291702
 30
0.0
 10
250.0204939219348
 20
24.69776802291702
 30
0.0
 10
250.0204939219348
 20
25.07874415848122
 30
0.0
 10
250.0204939219348
 20
25.07874415848122
 30
0.0
 10
250.0204939219348
 20
25.07874415848122
 30
0.0
 10
250.0204939219348
 20
25.07874415848122
 30
0.0
 10
250.0204939219348
 20
25.07874415848122
 30
0.0
 10
250.0204939219348
 20
25.07874415848122
 30
0.0
 10
249.9675944458613
 20
25.07874415848122
 30
0.0
 10
249.9675944458613
 20
25.07874415848122
 30
0.0
  0
ENDBLK
  5
77
330
74
100
AcDbEntity
  8
0
100
AcDbBlockEnd
  0
BLOCK
  5
7B
330
79
100
AcDbEntity
  8
0
100
AcDbBlockBegin
  2
block 13
 70
     0
 71
     0
 10
0.0
 20
0.0
 30
0.0
  3
block 13
  1

  0
POLYLINE
  5
7D
330
79
100
AcDbEntity
  8
Livello 1
370
     0
100
AcDb2dPolyline
 66
     1
 10
0.0
 20
0.0
 30
0.0
  0
VERTEX
  5
7E
330
7D
100
AcDbEntity
  8
Livello 1
370
     0
100
AcDbVertex
100
AcDb2dVertex
 10
251.9196729629663
 20
25.31473335490159
 30
0.0
  0
VERTEX
  5
7F
330
7D
100
AcDbEntity
  8
Livello 1
370
     0
100
AcDbVertex
100
AcDb2dVertex
 10
251.8491173608832
 20
25.31442329610338
 30
0.0
  0
VERTEX
  5
80
330
7D
100
AcDbEntity
  8
Livello 1
370
     0
100
AcDbVertex
100
AcDb2dVertex
 10
251.8599349678432
 20
25.59232210674936
 30
0.0
  0
VERTEX
  5
81
330
7D
100
AcDbEntity
  8
Livello 1
370
     0
100
AcDbVertex
100
AcDb2dVertex
 10
251.9781018209413
 20
25.45727427463726
 30
0.0
  0
VERTEX
  5
82
330
7D
100
AcDbEntity
  8
Livello 1
370
     0
100
AcDbVertex
100
AcDb2dVertex
 10
251.9783085268068
 20
25.42557937526401
 30
0.0
  0
VERTEX
  5
83
330
7D
100
AcDbEntity
  8
Livello 1
370
     0
100
AcDbVertex
100
AcDb2dVertex
 10
251.9193973551457
 20
25.42523486548821
 30
0.0
  0
SEQEND
  5
84
330
7D
100
AcDbEntity
  8
Livello 1
370
     0
  0
ENDBLK
  5
7C
330
79
100
AcDbEntity
  8
0
100
AcDbBlockEnd
  0
BLOCK
  5
87
330
85
100
AcDbEntity
  8
0
100
AcDbBlockBegin
  2
block 14
 70
     0
 71
     0
 10
0.0
 20
0.0
 30
0.0
  3
block 14
  1

  0
POLYLINE
  5
89
330
85
100
AcDbEntity
  8
Livello 1
 62
   250
370
     9
100
AcDb2dPolyline
 66
     1
 10
0.0
 20
0.0
 30
0.0
  0
VERTEX
  5
8A
330
89
100
AcDbEntity
  8
Livello 1
 62
   250
370
     9
100
AcDbVertex
100
AcDb2dVertex
 10
251.9196729629663
 20
25.31473335490159
 30
0.0
  0
VERTEX
  5
8B
330
89
100
AcDbEntity
  8
Livello 1
 62
   250
370
     9
100
AcDbVertex
100
AcDb2dVertex
 10
251.8491173608832
 20
25.31442329610338
 30
0.0
  0
VERTEX
  5
8C
330
89
100
AcDbEntity
  8
Livello 1
 62
   250
370
     9
100
AcDbVertex
100
AcDb2dVertex
 10
251.8599349678432
 20
25.59232210674936
 30
0.0
  0
VERTEX
  5
8D
330
89
100
AcDbEntity
  8
Livello 1
 62
   250
370
     9
100
AcDbVertex
100
AcDb2dVertex
 10
251.9781018209413
 20
25.45727427463726
 30
0.0
  0
VERTEX
  5
8E
330
89
100
AcDbEntity
  8
Livello 1
 62
   250
370
     9
100
AcDbVertex
100
AcDb2dVertex
 10
251.9783085268068
 20
25.42557937526401
 30
0.0
  0
VERTEX
  5
8F
330
89
100
AcDbEntity
  8
Livello 1
 62
   250
370
     9
100
AcDbVertex
100
AcDb2dVertex
 10
251.9193973551457
 20
25.42523486548821
 30
0.0
  0
VERTEX
  5
90
330
89
100
AcDbEntity
  8
Livello 1
 62
   250
370
     9
100
AcDbVertex
100
AcDb2dVertex
 10
251.9196729629663
 20
25.31473335490159
 30
0.0
  0
SEQEND
  5
91
330
89
100
AcDbEntity
  8
Livello 1
370
     9
  0
ENDBLK
  5
88
330
85
100
AcDbEntity
  8
0
100
AcDbBlockEnd
  0
BLOCK
  5
94
330
92
100
AcDbEntity
  8
0
100
AcDbBlockBegin
  2
block 15
 70
     0
 71
     0
 10
0.0
 20
0.0
 30
0.0
  3
block 15
  1

  0
POLYLINE
  5
96
330
92
100
AcDbEntity
  8
Livello 1
370
     0
100
AcDb2dPolyline
 66
     1
 10
0.0
 20
0.0
 30
0.0
  0
VERTEX
  5
97
330
96
100
AcDbEntity
  8
Livello 1
370
     0
100
AcDbVertex
100
AcDb2dVertex
 10
249.6760874990713
 20
25.31473335490159
 30
0.0
  0
VERTEX
  5
98
330
96
100
AcDbEntity
  8
Livello 1
370
     0
100
AcDbVertex
100
AcDb2dVertex
 10
249.7466258756656
 20
25.31442329610338
 30
0.0
  0
VERTEX
  5
99
330
96
100
AcDbEntity
  8
Livello 1
370
     0
100
AcDbVertex
100
AcDb2dVertex
 10
249.7358082687056
 20
25.59232210674936
 30
0.0
  0
VERTEX
  5
9A
330
96
100
AcDbEntity
  8
Livello 1
370
     0
100
AcDbVertex
100
AcDb2dVertex
 10
249.6176414156075
 20
25.45727427463726
 30
0.0
  0
VERTEX
  5
9B
330
96
100
AcDbEntity
  8
Livello 1
370
     0
100
AcDbVertex
100
AcDb2dVertex
 10
249.6174174842532
 20
25.42557937526401
 30
0.0
  0
VERTEX
  5
9C
330
96
100
AcDbEntity
  8
Livello 1
370
     0
100
AcDbVertex
100
AcDb2dVertex
 10
249.6763458814032
 20
25.42523486548821
 30
0.0
  0
SEQEND
  5
9D
330
96
100
AcDbEntity
  8
Livello 1
370
     0
  0
ENDBLK
  5
95
330
92
100
AcDbEntity
  8
0
100
AcDbBlockEnd
  0
BLOCK
  5
A0
330
9E
100
AcDbEntity
  8
0
100
AcDbBlockBegin
  2
block 16
 70
     0
 71
     0
 10
0.0
 20
0.0
 30
0.0
  3
block 16
  1

  0
POLYLINE
  5
A2
330
9E
100
AcDbEntity
  8
Livello 1
 62
   250
370
     9
100
AcDb2dPolyline
 66
     1
 10
0.0
 20
0.0
 30
0.0
  0
VERTEX
  5
A3
330
A2
100
AcDbEntity
  8
Livello 1
 62
   250
370
     9
100
AcDbVertex
100
AcDb2dVertex
 10
249.6760874990713
 20
25.31473335490159
 30
0.0
  0
VERTEX
  5
A4
330
A2
100
AcDbEntity
  8
Livello 1
 62
   250
370
     9
100
AcDbVertex
100
AcDb2dVertex
 10
249.7466258756656
 20
25.31442329610338
 30
0.0
  0
VERTEX
  5
A5
330
A2
100
AcDbEntity
  8
Livello 1
 62
   250
370
     9
100
AcDbVertex
100
AcDb2dVertex
 10
249.7358082687056
 20
25.59232210674936
 30
0.0
  0
VERTEX
  5
A6
330
A2
100
AcDbEntity
  8
Livello 1
 62
   250
370
     9
100
AcDbVertex
100
AcDb2dVertex
 10
249.6176414156075
 20
25.45727427463726
 30
0.0
  0
VERTEX
  5
A7
330
A2
100
AcDbEntity
  8
Livello 1
 62
   250
370
     9
100
AcDbVertex
100
AcDb2dVertex
 10
249.6174174842532
 20
25.42557937526401
 30
0.0
  0
VERTEX
  5
A8
330
A2
100
AcDbEntity
  8
Livello 1
 62
   250
370
     9
100
AcDbVertex
100
AcDb2dVertex
 10
249.6763458814032
 20
25.42523486548821
 30
0.0
  0
VERTEX
  5
A9
330
A2
100
AcDbEntity
  8
Livello 1
 62
   250
370
     9
100
AcDbVertex
100
AcDb2dVertex
 10
249.6760874990713
 20
25.31473335490159
 30
0.0
  0
SEQEND
  5
AA
330
A2
100
AcDbEntity
  8
Livello 1
370
     9
  0
ENDBLK
  5
A1
330
9E
100
AcDbEntity
  8
0
100
AcDbBlockEnd
  0
BLOCK
  5
AD
330
AB
100
AcDbEntity
  8
0
100
AcDbBlockBegin
  2
block 17
 70
     0
 71
     0
 10
0.0
 20
0.0
 30
0.0
  3
block 17
  1

  0
SPLINE
  5
AF
330
AB
100
AcDbEntity
  8
Livello 1
370
     0
100
AcDbSpline
210
0.0
220
0.0
230
1.0
 70
     8
 71
     3
 72
    44
 73
    40
 74
     0
 42
0.0000000001
 43
0.0000000001
 40
0.0
 40
0.0
 40
0.0
 40
0.0
 40
1.0
 40
1.0
 40
1.0
 40
2.0
 40
2.0
 40
2.0
 40
3.0
 40
3.0
 40
3.0
 40
4.0
 40
4.0
 40
4.0
 40
5.0
 40
5.0
 40
5.0
 40
6.0
 40
6.0
 40
6.0
 40
7.0
 40
7.0
 40
7.0
 40
8.0
 40
8.0
 40
8.0
 40
9.0
 40
9.0
 40
9.0
 40
10.0
 40
10.0
 40
10.0
 40
11.0
 40
11.0
 40
11.0
 40
12.0
 40
12.0
 40
12.0
 40
13.0
 40
13.0
 40
13.0
 40
13.0
 10
251.119273400859
 20
24.52234364508162
 30
0.0
 10
251.119273400859
 20
24.52234364508162
 30
0.0
 10
251.0716966008216
 20
24.51028580292875
 30
0.0
 10
251.0716966008216
 20
24.4647416105685
 30
0.0
 10
251.0716966008216
 20
24.4647416105685
 30
0.0
 10
251.0716966008216
 20
24.4647416105685
 30
0.0
 10
251.0716966008216
 20
24.4647416105685
 30
0.0
 10
251.0716966008216
 20
24.41923186918582
 30
0.0
 10
251.0716966008216
 20
24.33351783696774
 30
0.0
 10
251.0716966008216
 20
24.33351783696774
 30
0.0
 10
251.0716966008216
 20
24.33351783696774
 30
0.0
 10
251.0716966008216
 20
24.33351783696774
 30
0.0
 10
251.0716966008216
 20
24.33351783696774
 30
0.0
 10
251.0716966008216
 20
24.33351783696774
 30
0.0
 10
251.0743837770728
 20
24.17817837906124
 30
0.0
 10
250.8835942632369
 20
24.17817837906124
 30
0.0
 10
250.8835942632369
 20
24.17817837906124
 30
0.0
 10
250.8835942632369
 20
24.17817837906124
 30
0.0
 10
250.8835942632369
 20
24.17817837906124
 30
0.0
 10
250.8835942632369
 20
24.17817837906124
 30
0.0
 10
250.8219959153245
 20
24.17817837906124
 30
0.0
 10
250.8219959153245
 20
24.17817837906124
 30
0.0
 10
250.8219959153245
 20
24.17817837906124
 30
0.0
 10
250.8219959153245
 20
24.17817837906124
 30
0.0
 10
250.8219959153245
 20
24.17817837906124
 30
0.0
 10
250.6311374995335
 20
24.17817837906124
 30
0.0
 10
250.6338246757847
 20
24.33351783696774
 30
0.0
 10
250.6338246757847
 20
24.33351783696774
 30
0.0
 10
250.6338246757847
 20
24.33351783696774
 30
0.0
 10
250.6338246757847
 20
24.33351783696774
 30
0.0
 10
250.6338246757847
 20
24.33351783696774
 30
0.0
 10
250.6338246757847
 20
24.33351783696774
 30
0.0
 10
250.6338246757847
 20
24.41923186918582
 30
0.0
 10
250.6338246757847
 20
24.4647416105685
 30
0.0
 10
250.6338246757847
 20
24.4647416105685
 30
0.0
 10
250.6338246757847
 20
24.4647416105685
 30
0.0
 10
250.6338246757847
 20
24.4647416105685
 30
0.0
 10
250.6338246757847
 20
24.51028580292875
 30
0.0
 10
250.5862823267248
 20
24.52234364508162
 30
0.0
 10
250.5862823267248
 20
24.52234364508162
 30
0.0
  0
ENDBLK
  5
AE
330
AB
100
AcDbEntity
  8
0
100
AcDbBlockEnd
  0
BLOCK
  5
B2
330
B0
100
AcDbEntity
  8
0
100
AcDbBlockBegin
  2
block 18
 70
     0
 71
     0
 10
0.0
 20
0.0
 30
0.0
  3
block 18
  1

  0
SPLINE
  5
B4
330
B0
100
AcDbEntity
  8
Livello 1
 62
   250
370
     9
100
AcDbSpline
210
0.0
220
0.0
230
1.0
 70
    11
 71
     3
 72
    50
 73
    46
 74
     0
 42
0.0000000001
 43
0.0000000001
 40
0.0
 40
0.0
 40
0.0
 40
0.0
 40
1.0
 40
1.0
 40
1.0
 40
2.0
 40
2.0
 40
2.0
 40
3.0
 40
3.0
 40
3.0
 40
4.0
 40
4.0
 40
4.0
 40
5.0
 40
5.0
 40
5.0
 40
6.0
 40
6.0
 40
6.0
 40
7.0
 40
7.0
 40
7.0
 40
8.0
 40
8.0
 40
8.0
 40
9.0
 40
9.0
 40
9.0
 40
10.0
 40
10.0
 40
10.0
 40
11.0
 40
11.0
 40
11.0
 40
12.0
 40
12.0
 40
12.0
 40
13.0
 40
13.0
 40
13.0
 40
14.0
 40
14.0
 40
14.0
 40
15.0
 40
15.0
 40
15.0
 40
15.0
 10
251.119273400859
 20
24.52234364508162
 30
0.0
 10
251.119273400859
 20
24.52234364508162
 30
0.0
 10
251.0716966008216
 20
24.51028580292875
 30
0.0
 10
251.0716966008216
 20
24.4647416105685
 30
0.0
 10
251.0716966008216
 20
24.4647416105685
 30
0.0
 10
251.0716966008216
 20
24.4647416105685
 30
0.0
 10
251.0716966008216
 20
24.4647416105685
 30
0.0
 10
251.0716966008216
 20
24.41923186918582
 30
0.0
 10
251.0716966008216
 20
24.33351783696774
 30
0.0
 10
251.0716966008216
 20
24.33351783696774
 30
0.0
 10
251.0716966008216
 20
24.33351783696774
 30
0.0
 10
251.0716966008216
 20
24.33351783696774
 30
0.0
 10
251.0716966008216
 20
24.33351783696774
 30
0.0
 10
251.0716966008216
 20
24.33351783696774
 30
0.0
 10
251.0743837770728
 20
24.17817837906124
 30
0.0
 10
250.8835942632369
 20
24.17817837906124
 30
0.0
 10
250.8835942632369
 20
24.17817837906124
 30
0.0
 10
250.8835942632369
 20
24.17817837906124
 30
0.0
 10
250.8835942632369
 20
24.17817837906124
 30
0.0
 10
250.8835942632369
 20
24.17817837906124
 30
0.0
 10
250.8219959153245
 20
24.17817837906124
 30
0.0
 10
250.8219959153245
 20
24.17817837906124
 30
0.0
 10
250.8219959153245
 20
24.17817837906124
 30
0.0
 10
250.8219959153245
 20
24.17817837906124
 30
0.0
 10
250.8219959153245
 20
24.17817837906124
 30
0.0
 10
250.6311374995335
 20
24.17817837906124
 30
0.0
 10
250.6338246757847
 20
24.33351783696774
 30
0.0
 10
250.6338246757847
 20
24.33351783696774
 30
0.0
 10
250.6338246757847
 20
24.33351783696774
 30
0.0
 10
250.6338246757847
 20
24.33351783696774
 30
0.0
 10
250.6338246757847
 20
24.33351783696774
 30
0.0
 10
250.6338246757847
 20
24.33351783696774
 30
0.0
 10
250.6338246757847
 20
24.41923186918582
 30
0.0
 10
250.6338246757847
 20
24.4647416105685
 30
0.0
 10
250.6338246757847
 20
24.4647416105685
 30
0.0
 10
250.6338246757847
 20
24.4647416105685
 30
0.0
 10
250.6338246757847
 20
24.4647416105685
 30
0.0
 10
250.6338246757847
 20
24.51028580292875
 30
0.0
 10
250.5862823267248
 20
24.52234364508162
 30
0.0
 10
250.5862823267248
 20
24.52234364508162
 30
0.0
 10
250.5862823267248
 20
24.52234364508162
 30
0.0
 10
250.5862823267248
 20
24.52234364508162
 30
0.0
 10
250.5862823267248
 20
24.52234364508162
 30
0.0
 10
250.5862823267248
 20
24.52234364508162
 30
0.0
 10
251.119273400859
 20
24.52234364508162
 30
0.0
 10
251.119273400859
 20
24.52234364508162
 30
0.0
  0
ENDBLK
  5
B3
330
B0
100
AcDbEntity
  8
0
100
AcDbBlockEnd
  0
BLOCK
  5
B7
330
B5
100
AcDbEntity
  8
0
100
AcDbBlockBegin
  2
block 19
 70
     0
 71
     0
 10
0.0
 20
0.0
 30
0.0
  3
block 19
  1

  0
SPLINE
  5
B9
330
B5
100
AcDbEntity
  8
Livello 1
370
     0
100
AcDbSpline
210
0.0
220
0.0
230
1.0
 70
    11
 71
     3
 72
    74
 73
    70
 74
     0
 42
0.0000000001
 43
0.0000000001
 40
0.0
 40
0.0
 40
0.0
 40
0.0
 40
1.0
 40
1.0
 40
1.0
 40
2.0
 40
2.0
 40
2.0
 40
3.0
 40
3.0
 40
3.0
 40
4.0
 40
4.0
 40
4.0
 40
5.0
 40
5.0
 40
5.0
 40
6.0
 40
6.0
 40
6.0
 40
7.0
 40
7.0
 40
7.0
 40
8.0
 40
8.0
 40
8.0
 40
9.0
 40
9.0
 40
9.0
 40
10.0
 40
10.0
 40
10.0
 40
11.0
 40
11.0
 40
11.0
 40
12.0
 40
12.0
 40
12.0
 40
13.0
 40
13.0
 40
13.0
 40
14.0
 40
14.0
 40
14.0
 40
15.0
 40
15.0
 40
15.0
 40
16.0
 40
16.0
 40
16.0
 40
17.0
 40
17.0
 40
17.0
 40
18.0
 40
18.0
 40
18.0
 40
19.0
 40
19.0
 40
19.0
 40
20.0
 40
20.0
 40
20.0
 40
21.0
 40
21.0
 40
21.0
 40
22.0
 40
22.0
 40
22.0
 40
23.0
 40
23.0
 40
23.0
 40
23.0
 10
250.9812283336975
 20
24.34326746362277
 30
0.0
 10
250.9812283336975
 20
24.3858144209336
 30
0.0
 10
250.9533919438132
 20
24.42033430046837
 30
0.0
 10
250.9190443191663
 20
24.42054100633385
 30
0.0
 10
250.9190443191663
 20
24.42054100633385
 30
0.0
 10
250.9190443191663
 20
24.42054100633385
 30
0.0
 10
250.9190443191663
 20
24.42054100633385
 30
0.0
 10
250.9190443191663
 20
24.42054100633385
 30
0.0
 10
250.9190443191663
 20
24.42054100633385
 30
0.0
 10
250.9190443191663
 20
24.42054100633385
 30
0.0
 10
250.9190443191663
 20
24.42054100633385
 30
0.0
 10
250.9190443191663
 20
24.42054100633385
 30
0.0
 10
250.9190443191663
 20
24.42054100633385
 30
0.0
 10
250.9190443191663
 20
24.42054100633385
 30
0.0
 10
250.7851333693143
 20
24.42054100633385
 30
0.0
 10
250.7851333693143
 20
24.42054100633385
 30
0.0
 10
250.7851333693143
 20
24.42054100633385
 30
0.0
 10
250.7851333693143
 20
24.42054100633385
 30
0.0
 10
250.7851333693143
 20
24.42054100633385
 30
0.0
 10
250.7851333693143
 20
24.42054100633385
 30
0.0
 10
250.7851333693143
 20
24.42054100633385
 30
0.0
 10
250.7851333693143
 20
24.42054100633385
 30
0.0
 10
250.7851333693143
 20
24.42054100633385
 30
0.0
 10
250.7851333693143
 20
24.42054100633385
 30
0.0
 10
250.7851333693143
 20
24.42054100633385
 30
0.0
 10
250.7851333693143
 20
24.42054100633385
 30
0.0
 10
250.7851333693143
 20
24.42054100633385
 30
0.0
 10
250.7850644673592
 20
24.42054100633385
 30
0.0
 10
250.7850644673592
 20
24.42054100633385
 30
0.0
 10
250.7850644673592
 20
24.42054100633385
 30
0.0
 10
250.7850644673592
 20
24.42054100633385
 30
0.0
 10
250.7506134897796
 20
24.42054100633385
 30
0.0
 10
250.7226392959849
 20
24.38595222484391
 30
0.0
 10
250.7226392959849
 20
24.34326746362277
 30
0.0
 10
250.7226392959849
 20
24.34326746362277
 30
0.0
 10
250.7226392959849
 20
24.34326746362277
 30
0.0
 10
250.7226392959849
 20
24.34326746362277
 30
0.0
 10
250.7226392959849
 20
24.30058270240162
 30
0.0
 10
250.7506134897796
 20
24.26599392091169
 30
0.0
 10
250.7850644673592
 20
24.26599392091169
 30
0.0
 10
250.7850644673592
 20
24.26599392091169
 30
0.0
 10
250.7850644673592
 20
24.26599392091169
 30
0.0
 10
250.7850644673592
 20
24.26599392091169
 30
0.0
 10
250.7851333693143
 20
24.26599392091169
 30
0.0
 10
250.7851333693143
 20
24.26599392091169
 30
0.0
 10
250.7851333693143
 20
24.26599392091169
 30
0.0
 10
250.7851333693143
 20
24.26599392091169
 30
0.0
 10
250.7851333693143
 20
24.26599392091169
 30
0.0
 10
250.7851333693143
 20
24.26599392091169
 30
0.0
 10
250.7851333693143
 20
24.26599392091169
 30
0.0
 10
250.7851333693143
 20
24.26585611700137
 30
0.0
 10
250.7851333693143
 20
24.26585611700137
 30
0.0
 10
250.7851333693143
 20
24.26585611700137
 30
0.0
 10
250.7851333693143
 20
24.26585611700137
 30
0.0
 10
250.7851333693143
 20
24.26585611700137
 30
0.0
 10
250.7851333693143
 20
24.26585611700137
 30
0.0
 10
250.9190443191663
 20
24.26585611700137
 30
0.0
 10
250.9190443191663
 20
24.26585611700137
 30
0.0
 10
250.9190443191663
 20
24.26585611700137
 30
0.0
 10
250.9190443191663
 20
24.26585611700137
 30
0.0
 10
250.9190443191663
 20
24.26585611700137
 30
0.0
 10
250.9190443191663
 20
24.26585611700137
 30
0.0
 10
250.9190443191663
 20
24.26599392091169
 30
0.0
 10
250.9190443191663
 20
24.26599392091169
 30
0.0
 10
250.9190443191663
 20
24.26599392091169
 30
0.0
 10
250.9190443191663
 20
24.26599392091169
 30
0.0
 10
250.9190443191663
 20
24.26599392091169
 30
0.0
 10
250.9533919438132
 20
24.26620062677716
 30
0.0
 10
250.9812283336975
 20
24.30072050631194
 30
0.0
 10
250.9812283336975
 20
24.34326746362277
 30
0.0
  0
ENDBLK
  5
B8
330
B5
100
AcDbEntity
  8
0
100
AcDbBlockEnd
  0
BLOCK
  5
BC
330
BA
100
AcDbEntity
  8
0
100
AcDbBlockBegin
  2
block 20
 70
     0
 71
     0
 10
0.0
 20
0.0
 30
0.0
  3
block 20
  1

  0
SPLINE
  5
BE
330
BA
100
AcDbEntity
  8
Livello 1
 62
   250
370
     9
100
AcDbSpline
210
0.0
220
0.0
230
1.0
 70
    11
 71
     3
 72
    74
 73
    70
 74
     0
 42
0.0000000001
 43
0.0000000001
 40
0.0
 40
0.0
 40
0.0
 40
0.0
 40
1.0
 40
1.0
 40
1.0
 40
2.0
 40
2.0
 40
2.0
 40
3.0
 40
3.0
 40
3.0
 40
4.0
 40
4.0
 40
4.0
 40
5.0
 40
5.0
 40
5.0
 40
6.0
 40
6.0
 40
6.0
 40
7.0
 40
7.0
 40
7.0
 40
8.0
 40
8.0
 40
8.0
 40
9.0
 40
9.0
 40
9.0
 40
10.0
 40
10.0
 40
10.0
 40
11.0
 40
11.0
 40
11.0
 40
12.0
 40
12.0
 40
12.0
 40
13.0
 40
13.0
 40
13.0
 40
14.0
 40
14.0
 40
14.0
 40
15.0
 40
15.0
 40
15.0
 40
16.0
 40
16.0
 40
16.0
 40
17.0
 40
17.0
 40
17.0
 40
18.0
 40
18.0
 40
18.0
 40
19.0
 40
19.0
 40
19.0
 40
20.0
 40
20.0
 40
20.0
 40
21.0
 40
21.0
 40
21.0
 40
22.0
 40
22.0
 40
22.0
 40
23.0
 40
23.0
 40
23.0
 40
23.0
 10
250.9812283336975
 20
24.34326746362277
 30
0.0
 10
250.9812283336975
 20
24.3858144209336
 30
0.0
 10
250.9533919438132
 20
24.42033430046837
 30
0.0
 10
250.9190443191663
 20
24.42054100633385
 30
0.0
 10
250.9190443191663
 20
24.42054100633385
 30
0.0
 10
250.9190443191663
 20
24.42054100633385
 30
0.0
 10
250.9190443191663
 20
24.42054100633385
 30
0.0
 10
250.9190443191663
 20
24.42054100633385
 30
0.0
 10
250.9190443191663
 20
24.42054100633385
 30
0.0
 10
250.9190443191663
 20
24.42054100633385
 30
0.0
 10
250.9190443191663
 20
24.42054100633385
 30
0.0
 10
250.9190443191663
 20
24.42054100633385
 30
0.0
 10
250.9190443191663
 20
24.42054100633385
 30
0.0
 10
250.9190443191663
 20
24.42054100633385
 30
0.0
 10
250.7851333693143
 20
24.42054100633385
 30
0.0
 10
250.7851333693143
 20
24.42054100633385
 30
0.0
 10
250.7851333693143
 20
24.42054100633385
 30
0.0
 10
250.7851333693143
 20
24.42054100633385
 30
0.0
 10
250.7851333693143
 20
24.42054100633385
 30
0.0
 10
250.7851333693143
 20
24.42054100633385
 30
0.0
 10
250.7851333693143
 20
24.42054100633385
 30
0.0
 10
250.7851333693143
 20
24.42054100633385
 30
0.0
 10
250.7851333693143
 20
24.42054100633385
 30
0.0
 10
250.7851333693143
 20
24.42054100633385
 30
0.0
 10
250.7851333693143
 20
24.42054100633385
 30
0.0
 10
250.7851333693143
 20
24.42054100633385
 30
0.0
 10
250.7851333693143
 20
24.42054100633385
 30
0.0
 10
250.7850644673592
 20
24.42054100633385
 30
0.0
 10
250.7850644673592
 20
24.42054100633385
 30
0.0
 10
250.7850644673592
 20
24.42054100633385
 30
0.0
 10
250.7850644673592
 20
24.42054100633385
 30
0.0
 10
250.7506134897796
 20
24.42054100633385
 30
0.0
 10
250.7226392959849
 20
24.38595222484391
 30
0.0
 10
250.7226392959849
 20
24.34326746362277
 30
0.0
 10
250.7226392959849
 20
24.34326746362277
 30
0.0
 10
250.7226392959849
 20
24.34326746362277
 30
0.0
 10
250.7226392959849
 20
24.34326746362277
 30
0.0
 10
250.7226392959849
 20
24.30058270240162
 30
0.0
 10
250.7506134897796
 20
24.26599392091169
 30
0.0
 10
250.7850644673592
 20
24.26599392091169
 30
0.0
 10
250.7850644673592
 20
24.26599392091169
 30
0.0
 10
250.7850644673592
 20
24.26599392091169
 30
0.0
 10
250.7850644673592
 20
24.26599392091169
 30
0.0
 10
250.7851333693143
 20
24.26599392091169
 30
0.0
 10
250.7851333693143
 20
24.26599392091169
 30
0.0
 10
250.7851333693143
 20
24.26599392091169
 30
0.0
 10
250.7851333693143
 20
24.26599392091169
 30
0.0
 10
250.7851333693143
 20
24.26599392091169
 30
0.0
 10
250.7851333693143
 20
24.26599392091169
 30
0.0
 10
250.7851333693143
 20
24.26599392091169
 30
0.0
 10
250.7851333693143
 20
24.26585611700137
 30
0.0
 10
250.7851333693143
 20
24.26585611700137
 30
0.0
 10
250.7851333693143
 20
24.26585611700137
 30
0.0
 10
250.7851333693143
 20
24.26585611700137
 30
0.0
 10
250.7851333693143
 20
24.26585611700137
 30
0.0
 10
250.7851333693143
 20
24.26585611700137
 30
0.0
 10
250.9190443191663
 20
24.26585611700137
 30
0.0
 10
250.9190443191663
 20
24.26585611700137
 30
0.0
 10
250.9190443191663
 20
24.26585611700137
 30
0.0
 10
250.9190443191663
 20
24.26585611700137
 30
0.0
 10
250.9190443191663
 20
24.26585611700137
 30
0.0
 10
250.9190443191663
 20
24.26585611700137
 30
0.0
 10
250.9190443191663
 20
24.26599392091169
 30
0.0
 10
250.9190443191663
 20
24.26599392091169
 30
0.0
 10
250.9190443191663
 20
24.26599392091169
 30
0.0
 10
250.9190443191663
 20
24.26599392091169
 30
0.0
 10
250.9190443191663
 20
24.26599392091169
 30
0.0
 10
250.9533919438132
 20
24.26620062677716
 30
0.0
 10
250.9812283336975
 20
24.30072050631194
 30
0.0
 10
250.9812283336975
 20
24.34326746362277
 30
0.0
  0
ENDBLK
  5
BD
330
BA
100
AcDbEntity
  8
0
100
AcDbBlockEnd
  0
BLOCK
  5
C1
330
BF
100
AcDbEntity
  8
0
100
AcDbBlockBegin
  2
block 21
 70
     0
 71
     0
 10
0.0
 20
0.0
 30
0.0
  3
block 21
  1

  0
POLYLINE
  5
C3
330
BF
100
AcDbEntity
  8
Livello 1
 62
   250
370
     9
100
AcDb2dPolyline
 66
     1
 10
0.0
 20
0.0
 30
0.0
  0
VERTEX
  5
C4
330
C3
100
AcDbEntity
  8
Livello 1
 62
   250
370
     9
100
AcDbVertex
100
AcDb2dVertex
 10
250.7619478614033
 20
26.3406662417338
 30
0.0
  0
VERTEX
  5
C5
330
C3
100
AcDbEntity
  8
Livello 1
 62
   250
370
     9
100
AcDbVertex
100
AcDb2dVertex
 10
250.3787151868076
 20
26.3406662417338
 30
0.0
  0
SEQEND
  5
C6
330
C3
100
AcDbEntity
  8
Livello 1
370
     9
  0
ENDBLK
  5
C2
330
BF
100
AcDbEntity
  8
0
100
AcDbBlockEnd
  0
BLOCK
  5
C9
330
C7
100
AcDbEntity
  8
0
100
AcDbBlockBegin
  2
block 22
 70
     0
 71
     0
 10
0.0
 20
0.0
 30
0.0
  3
block 22
  1

  0
POLYLINE
  5
CB
330
C7
100
AcDbEntity
  8
Livello 1
 62
   250
370
     9
100
AcDb2dPolyline
 66
     1
 10
0.0
 20
0.0
 30
0.0
  0
VERTEX
  5
CC
330
CB
100
AcDbEntity
  8
Livello 1
 62
   250
370
     9
100
AcDbVertex
100
AcDb2dVertex
 10
251.2130145108532
 20
26.3406662417338
 30
0.0
  0
VERTEX
  5
CD
330
CB
100
AcDbEntity
  8
Livello 1
 62
   250
370
     9
100
AcDbVertex
100
AcDb2dVertex
 10
250.8309187185177
 20
26.3406662417338
 30
0.0
  0
SEQEND
  5
CE
330
CB
100
AcDbEntity
  8
Livello 1
370
     9
  0
ENDBLK
  5
CA
330
C7
100
AcDbEntity
  8
0
100
AcDbBlockEnd
  0
BLOCK
  5
D1
330
CF
100
AcDbEntity
  8
0
100
AcDbBlockBegin
  2
block 23
 70
     0
 71
     0
 10
0.0
 20
0.0
 30
0.0
  3
block 23
  1

  0
SPLINE
  5
D3
330
CF
100
AcDbEntity
  8
Livello 1
370
     0
100
AcDbSpline
210
0.0
220
0.0
230
1.0
 70
     8
 71
     3
 72
    74
 73
    70
 74
     0
 42
0.0000000001
 43
0.0000000001
 40
0.0
 40
0.0
 40
0.0
 40
0.0
 40
1.0
 40
1.0
 40
1.0
 40
2.0
 40
2.0
 40
2.0
 40
3.0
 40
3.0
 40
3.0
 40
4.0
 40
4.0
 40
4.0
 40
5.0
 40
5.0
 40
5.0
 40
6.0
 40
6.0
 40
6.0
 40
7.0
 40
7.0
 40
7.0
 40
8.0
 40
8.0
 40
8.0
 40
9.0
 40
9.0
 40
9.0
 40
10.0
 40
10.0
 40
10.0
 40
11.0
 40
11.0
 40
11.0
 40
12.0
 40
12.0
 40
12.0
 40
13.0
 40
13.0
 40
13.0
 40
14.0
 40
14.0
 40
14.0
 40
15.0
 40
15.0
 40
15.0
 40
16.0
 40
16.0
 40
16.0
 40
17.0
 40
17.0
 40
17.0
 40
18.0
 40
18.0
 40
18.0
 40
19.0
 40
19.0
 40
19.0
 40
20.0
 40
20.0
 40
20.0
 40
21.0
 40
21.0
 40
21.0
 40
22.0
 40
22.0
 40
22.0
 40
23.0
 40
23.0
 40
23.0
 40
23.0
 10
250.4729386104879
 20
25.05998560118912
 30
0.0
 10
250.4729386104879
 20
25.05998560118912
 30
0.0
 10
249.8149249387172
 20
25.06088132660619
 30
0.0
 10
249.8149249387172
 20
25.06088132660619
 30
0.0
 10
249.8149249387172
 20
25.06088132660619
 30
0.0
 10
249.8149249387172
 20
25.06088132660619
 30
0.0
 10
249.8149249387172
 20
25.06088132660619
 30
0.0
 10
249.8149249387172
 20
25.06088132660619
 30
0.0
 10
249.8077935863582
 20
24.51066476368213
 30
0.0
 10
249.8077935863582
 20
24.51066476368213
 30
0.0
 10
249.8077935863582
 20
24.51066476368213
 30
0.0
 10
249.8077935863582
 20
24.51066476368213
 30
0.0
 10
249.8077935863582
 20
24.51066476368213
 30
0.0
 10
249.8077935863582
 20
24.51066476368213
 30
0.0
 10
249.7196507602208
 20
24.51069921465971
 30
0.0
 10
249.7196507602208
 20
24.51069921465971
 30
0.0
 10
249.7196507602208
 20
24.51069921465971
 30
0.0
 10
249.7196507602208
 20
24.51069921465971
 30
0.0
 10
249.7196507602208
 20
24.51069921465971
 30
0.0
 10
249.7196507602208
 20
24.51069921465971
 30
0.0
 10
249.7200124954853
 20
26.32192490993048
 30
0.0
 10
249.7200124954853
 20
26.32192490993048
 30
0.0
 10
249.7200124954853
 20
26.32192490993048
 30
0.0
 10
249.7200124954853
 20
26.32192490993048
 30
0.0
 10
249.7200124954853
 20
26.32192490993048
 30
0.0
 10
249.7200124954853
 20
26.33227742869316
 30
0.0
 10
249.7297276711628
 20
26.3406662417338
 30
0.0
 10
249.7417166113605
 20
26.3406662417338
 30
0.0
 10
249.7417166113605
 20
26.3406662417338
 30
0.0
 10
249.7417166113605
 20
26.3406662417338
 30
0.0
 10
249.7417166113605
 20
26.3406662417338
 30
0.0
 10
249.7417166113605
 20
26.3406662417338
 30
0.0
 10
250.0007362862928
 20
26.3406662417338
 30
0.0
 10
250.0007362862928
 20
26.3406662417338
 30
0.0
 10
250.0007362862928
 20
26.3406662417338
 30
0.0
 10
250.0007362862928
 20
26.3406662417338
 30
0.0
 10
250.0007362862928
 20
26.3406662417338
 30
0.0
 10
250.0007362862928
 20
26.3406662417338
 30
0.0
 10
251.595006950256
 20
26.3406662417338
 30
0.0
 10
251.595006950256
 20
26.3406662417338
 30
0.0
 10
251.595006950256
 20
26.3406662417338
 30
0.0
 10
251.595006950256
 20
26.3406662417338
 30
0.0
 10
251.595006950256
 20
26.3406662417338
 30
0.0
 10
251.595006950256
 20
26.3406662417338
 30
0.0
 10
251.8492551647936
 20
26.3406662417338
 30
0.0
 10
251.8492551647936
 20
26.3406662417338
 30
0.0
 10
251.8492551647936
 20
26.3406662417338
 30
0.0
 10
251.8492551647936
 20
26.3406662417338
 30
0.0
 10
251.8492551647936
 20
26.3406662417338
 30
0.0
 10
251.8612441049913
 20
26.3406662417338
 30
0.0
 10
251.8709937316463
 20
26.33227742869316
 30
0.0
 10
251.8709937316463
 20
26.32192490993048
 30
0.0
 10
251.8709937316463
 20
26.32192490993048
 30
0.0
 10
251.8709937316463
 20
26.32192490993048
 30
0.0
 10
251.8709937316463
 20
26.32192490993048
 30
0.0
 10
251.8709937316463
 20
26.32192490993048
 30
0.0
 10
251.8709937316463
 20
24.52833811518047
 30
0.0
 10
251.8709937316463
 20
24.52833811518047
 30
0.0
 10
251.8709937316463
 20
24.52833811518047
 30
0.0
 10
251.8709937316463
 20
24.52833811518047
 30
0.0
 10
251.8709937316463
 20
24.52833811518047
 30
0.0
 10
251.8709937316463
 20
24.517968370929
 30
0.0
 10
251.8612441049913
 20
24.50959678337716
 30
0.0
 10
251.8492551647936
 20
24.50959678337716
 30
0.0
 10
251.8492551647936
 20
24.50959678337716
 30
0.0
 10
251.8492551647936
 20
24.50959678337716
 30
0.0
 10
251.8492551647936
 20
24.50959678337716
 30
0.0
 10
251.8492551647936
 20
24.50959678337716
 30
0.0
 10
250.4845141389546
 20
24.51032025390633
 30
0.0
 10
250.4845141389546
 20
24.51032025390633
 30
0.0
  0
ENDBLK
  5
D2
330
CF
100
AcDbEntity
  8
0
100
AcDbBlockEnd
  0
BLOCK
  5
D6
330
D4
100
AcDbEntity
  8
0
100
AcDbBlockBegin
  2
block 24
 70
     0
 71
     0
 10
0.0
 20
0.0
 30
0.0
  3
block 24
  1

  0
SPLINE
  5
D8
330
D4
100
AcDbEntity
  8
Livello 1
 62
   250
370
     9
100
AcDbSpline
210
0.0
220
0.0
230
1.0
 70
    11
 71
     3
 72
    80
 73
    76
 74
     0
 42
0.0000000001
 43
0.0000000001
 40
0.0
 40
0.0
 40
0.0
 40
0.0
 40
1.0
 40
1.0
 40
1.0
 40
2.0
 40
2.0
 40
2.0
 40
3.0
 40
3.0
 40
3.0
 40
4.0
 40
4.0
 40
4.0
 40
5.0
 40
5.0
 40
5.0
 40
6.0
 40
6.0
 40
6.0
 40
7.0
 40
7.0
 40
7.0
 40
8.0
 40
8.0
 40
8.0
 40
9.0
 40
9.0
 40
9.0
 40
10.0
 40
10.0
 40
10.0
 40
11.0
 40
11.0
 40
11.0
 40
12.0
 40
12.0
 40
12.0
 40
13.0
 40
13.0
 40
13.0
 40
14.0
 40
14.0
 40
14.0
 40
15.0
 40
15.0
 40
15.0
 40
16.0
 40
16.0
 40
16.0
 40
17.0
 40
17.0
 40
17.0
 40
18.0
 40
18.0
 40
18.0
 40
19.0
 40
19.0
 40
19.0
 40
20.0
 40
20.0
 40
20.0
 40
21.0
 40
21.0
 40
21.0
 40
22.0
 40
22.0
 40
22.0
 40
23.0
 40
23.0
 40
23.0
 40
24.0
 40
24.0
 40
24.0
 40
25.0
 40
25.0
 40
25.0
 40
25.0
 10
250.4729386104879
 20
25.05998560118912
 30
0.0
 10
250.4729386104879
 20
25.05998560118912
 30
0.0
 10
249.8149249387172
 20
25.06088132660619
 30
0.0
 10
249.8149249387172
 20
25.06088132660619
 30
0.0
 10
249.8149249387172
 20
25.06088132660619
 30
0.0
 10
249.8149249387172
 20
25.06088132660619
 30
0.0
 10
249.8149249387172
 20
25.06088132660619
 30
0.0
 10
249.8149249387172
 20
25.06088132660619
 30
0.0
 10
249.8077935863582
 20
24.51066476368213
 30
0.0
 10
249.8077935863582
 20
24.51066476368213
 30
0.0
 10
249.8077935863582
 20
24.51066476368213
 30
0.0
 10
249.8077935863582
 20
24.51066476368213
 30
0.0
 10
249.8077935863582
 20
24.51066476368213
 30
0.0
 10
249.8077935863582
 20
24.51066476368213
 30
0.0
 10
249.7196507602208
 20
24.51069921465971
 30
0.0
 10
249.7196507602208
 20
24.51069921465971
 30
0.0
 10
249.7196507602208
 20
24.51069921465971
 30
0.0
 10
249.7196507602208
 20
24.51069921465971
 30
0.0
 10
249.7196507602208
 20
24.51069921465971
 30
0.0
 10
249.7196507602208
 20
24.51069921465971
 30
0.0
 10
249.7200124954853
 20
26.32192490993048
 30
0.0
 10
249.7200124954853
 20
26.32192490993048
 30
0.0
 10
249.7200124954853
 20
26.32192490993048
 30
0.0
 10
249.7200124954853
 20
26.32192490993048
 30
0.0
 10
249.7200124954853
 20
26.32192490993048
 30
0.0
 10
249.7200124954853
 20
26.33227742869316
 30
0.0
 10
249.7297276711628
 20
26.3406662417338
 30
0.0
 10
249.7417166113605
 20
26.3406662417338
 30
0.0
 10
249.7417166113605
 20
26.3406662417338
 30
0.0
 10
249.7417166113605
 20
26.3406662417338
 30
0.0
 10
249.7417166113605
 20
26.3406662417338
 30
0.0
 10
249.7417166113605
 20
26.3406662417338
 30
0.0
 10
250.0007362862928
 20
26.3406662417338
 30
0.0
 10
250.0007362862928
 20
26.3406662417338
 30
0.0
 10
250.0007362862928
 20
26.3406662417338
 30
0.0
 10
250.0007362862928
 20
26.3406662417338
 30
0.0
 10
250.0007362862928
 20
26.3406662417338
 30
0.0
 10
250.0007362862928
 20
26.3406662417338
 30
0.0
 10
251.595006950256
 20
26.3406662417338
 30
0.0
 10
251.595006950256
 20
26.3406662417338
 30
0.0
 10
251.595006950256
 20
26.3406662417338
 30
0.0
 10
251.595006950256
 20
26.3406662417338
 30
0.0
 10
251.595006950256
 20
26.3406662417338
 30
0.0
 10
251.595006950256
 20
26.3406662417338
 30
0.0
 10
251.8492551647936
 20
26.3406662417338
 30
0.0
 10
251.8492551647936
 20
26.3406662417338
 30
0.0
 10
251.8492551647936
 20
26.3406662417338
 30
0.0
 10
251.8492551647936
 20
26.3406662417338
 30
0.0
 10
251.8492551647936
 20
26.3406662417338
 30
0.0
 10
251.8612441049913
 20
26.3406662417338
 30
0.0
 10
251.8709937316463
 20
26.33227742869316
 30
0.0
 10
251.8709937316463
 20
26.32192490993048
 30
0.0
 10
251.8709937316463
 20
26.32192490993048
 30
0.0
 10
251.8709937316463
 20
26.32192490993048
 30
0.0
 10
251.8709937316463
 20
26.32192490993048
 30
0.0
 10
251.8709937316463
 20
26.32192490993048
 30
0.0
 10
251.8709937316463
 20
24.52833811518047
 30
0.0
 10
251.8709937316463
 20
24.52833811518047
 30
0.0
 10
251.8709937316463
 20
24.52833811518047
 30
0.0
 10
251.8709937316463
 20
24.52833811518047
 30
0.0
 10
251.8709937316463
 20
24.52833811518047
 30
0.0
 10
251.8709937316463
 20
24.517968370929
 30
0.0
 10
251.8612441049913
 20
24.50959678337716
 30
0.0
 10
251.8492551647936
 20
24.50959678337716
 30
0.0
 10
251.8492551647936
 20
24.50959678337716
 30
0.0
 10
251.8492551647936
 20
24.50959678337716
 30
0.0
 10
251.8492551647936
 20
24.50959678337716
 30
0.0
 10
251.8492551647936
 20
24.50959678337716
 30
0.0
 10
250.4845141389546
 20
24.51032025390633
 30
0.0
 10
250.4845141389546
 20
24.51032025390633
 30
0.0
 10
250.4845141389546
 20
24.51032025390633
 30
0.0
 10
250.4845141389546
 20
24.51032025390633
 30
0.0
 10
250.4845141389546
 20
24.51032025390633
 30
0.0
 10
250.4845141389546
 20
24.51032025390633
 30
0.0
 10
250.4729386104879
 20
25.05998560118912
 30
0.0
 10
250.4729386104879
 20
25.05998560118912
 30
0.0
  0
ENDBLK
  5
D7
330
D4
100
AcDbEntity
  8
0
100
AcDbBlockEnd
  0
BLOCK
  5
DB
330
D9
100
AcDbEntity
  8
0
100
AcDbBlockBegin
  2
block 25
 70
     0
 71
     0
 10
0.0
 20
0.0
 30
0.0
  3
block 25
  1

  0
SPLINE
  5
DD
330
D9
100
AcDbEntity
  8
Livello 1
 62
   250
370
     9
100
AcDbSpline
210
0.0
220
0.0
230
1.0
 70
     8
 71
     3
 72
    32
 73
    28
 74
     0
 42
0.0000000001
 43
0.0000000001
 40
0.0
 40
0.0
 40
0.0
 40
0.0
 40
1.0
 40
1.0
 40
1.0
 40
2.0
 40
2.0
 40
2.0
 40
3.0
 40
3.0
 40
3.0
 40
4.0
 40
4.0
 40
4.0
 40
5.0
 40
5.0
 40
5.0
 40
6.0
 40
6.0
 40
6.0
 40
7.0
 40
7.0
 40
7.0
 40
8.0
 40
8.0
 40
8.0
 40
9.0
 40
9.0
 40
9.0
 40
9.0
 10
250.5202398027047
 20
24.51028580292875
 30
0.0
 10
250.5202398027047
 20
24.51028580292875
 30
0.0
 10
250.5394289972165
 20
24.51721044942225
 30
0.0
 10
250.5394289972165
 20
24.5434965453155
 30
0.0
 10
250.5394289972165
 20
24.5434965453155
 30
0.0
 10
250.5394289972165
 20
24.5434965453155
 30
0.0
 10
250.5394289972165
 20
24.5434965453155
 30
0.0
 10
250.5394289972165
 20
24.56974819023117
 30
0.0
 10
250.5394289972165
 20
24.88449232139855
 30
0.0
 10
250.5394289972165
 20
24.88449232139855
 30
0.0
 10
250.5394289972165
 20
24.88449232139855
 30
0.0
 10
250.5394289972165
 20
24.88449232139855
 30
0.0
 10
250.5394289972165
 20
24.88449232139855
 30
0.0
 10
250.5394289972165
 20
24.88449232139855
 30
0.0
 10
250.5368107229205
 20
24.92976090593816
 30
0.0
 10
250.5649227206254
 20
24.92976090593816
 30
0.0
 10
250.5649227206254
 20
24.92976090593816
 30
0.0
 10
250.5649227206254
 20
24.92976090593816
 30
0.0
 10
250.5649227206254
 20
24.92976090593816
 30
0.0
 10
250.5930347183304
 20
24.92976090593816
 30
0.0
 10
251.8394021852058
 20
24.92965755300543
 30
0.0
 10
251.8394021852058
 20
24.92965755300543
 30
0.0
 10
251.8394021852058
 20
24.92965755300543
 30
0.0
 10
251.8394021852058
 20
24.92965755300543
 30
0.0
 10
251.8394021852058
 20
24.92965755300543
 30
0.0
 10
251.8394021852058
 20
24.92965755300543
 30
0.0
 10
251.8709937316463
 20
24.92920969029689
 30
0.0
 10
251.8709937316463
 20
24.96176586410963
 30
0.0
  0
ENDBLK
  5
DC
330
D9
100
AcDbEntity
  8
0
100
AcDbBlockEnd
  0
BLOCK
  5
E0
330
DE
100
AcDbEntity
  8
0
100
AcDbBlockBegin
  2
block 26
 70
     0
 71
     0
 10
0.0
 20
0.0
 30
0.0
  3
block 26
  1

  0
SPLINE
  5
E2
330
DE
100
AcDbEntity
  8
Livello 1
370
     0
100
AcDbSpline
210
0.0
220
0.0
230
1.0
 70
    11
 71
     3
 72
    26
 73
    22
 74
     0
 42
0.0000000001
 43
0.0000000001
 40
0.0
 40
0.0
 40
0.0
 40
0.0
 40
1.0
 40
1.0
 40
1.0
 40
2.0
 40
2.0
 40
2.0
 40
3.0
 40
3.0
 40
3.0
 40
4.0
 40
4.0
 40
4.0
 40
5.0
 40
5.0
 40
5.0
 40
6.0
 40
6.0
 40
6.0
 40
7.0
 40
7.0
 40
7.0
 40
7.0
 10
251.2993831116453
 20
25.10017266653574
 30
0.0
 10
251.2993831116453
 20
25.16635299446618
 30
0.0
 10
251.3530232837367
 20
25.22001039204644
 30
0.0
 10
251.4192380626448
 20
25.22001039204644
 30
0.0
 10
251.4192380626448
 20
25.22001039204644
 30
0.0
 10
251.4192380626448
 20
25.22001039204644
 30
0.0
 10
251.4192380626448
 20
25.22001039204644
 30
0.0
 10
251.4854183905752
 20
25.22001039204644
 30
0.0
 10
251.5390585626667
 20
25.16635299446618
 30
0.0
 10
251.5390585626667
 20
25.10017266653574
 30
0.0
 10
251.5390585626667
 20
25.10017266653574
 30
0.0
 10
251.5390585626667
 20
25.10017266653574
 30
0.0
 10
251.5390585626667
 20
25.10017266653574
 30
0.0
 10
251.5390585626667
 20
25.03397511311651
 30
0.0
 10
251.4854183905752
 20
24.98030049004746
 30
0.0
 10
251.4192380626448
 20
24.98030049004746
 30
0.0
 10
251.4192380626448
 20
24.98030049004746
 30
0.0
 10
251.4192380626448
 20
24.98030049004746
 30
0.0
 10
251.4192380626448
 20
24.98030049004746
 30
0.0
 10
251.3530232837367
 20
24.98030049004746
 30
0.0
 10
251.2993831116453
 20
25.03397511311651
 30
0.0
 10
251.2993831116453
 20
25.10017266653574
 30
0.0
  0
ENDBLK
  5
E1
330
DE
100
AcDbEntity
  8
0
100
AcDbBlockEnd
  0
BLOCK
  5
E5
330
E3
100
AcDbEntity
  8
0
100
AcDbBlockBegin
  2
block 27
 70
     0
 71
     0
 10
0.0
 20
0.0
 30
0.0
  3
block 27
  1

  0
SPLINE
  5
E7
330
E3
100
AcDbEntity
  8
Livello 1
 62
   250
370
     9
100
AcDbSpline
210
0.0
220
0.0
230
1.0
 70
    11
 71
     3
 72
    26
 73
    22
 74
     0
 42
0.0000000001
 43
0.0000000001
 40
0.0
 40
0.0
 40
0.0
 40
0.0
 40
1.0
 40
1.0
 40
1.0
 40
2.0
 40
2.0
 40
2.0
 40
3.0
 40
3.0
 40
3.0
 40
4.0
 40
4.0
 40
4.0
 40
5.0
 40
5.0
 40
5.0
 40
6.0
 40
6.0
 40
6.0
 40
7.0
 40
7.0
 40
7.0
 40
7.0
 10
251.2993831116453
 20
25.10017266653574
 30
0.0
 10
251.2993831116453
 20
25.16635299446618
 30
0.0
 10
251.3530232837367
 20
25.22001039204644
 30
0.0
 10
251.4192380626448
 20
25.22001039204644
 30
0.0
 10
251.4192380626448
 20
25.22001039204644
 30
0.0
 10
251.4192380626448
 20
25.22001039204644
 30
0.0
 10
251.4192380626448
 20
25.22001039204644
 30
0.0
 10
251.4854183905752
 20
25.22001039204644
 30
0.0
 10
251.5390585626667
 20
25.16635299446618
 30
0.0
 10
251.5390585626667
 20
25.10017266653574
 30
0.0
 10
251.5390585626667
 20
25.10017266653574
 30
0.0
 10
251.5390585626667
 20
25.10017266653574
 30
0.0
 10
251.5390585626667
 20
25.10017266653574
 30
0.0
 10
251.5390585626667
 20
25.03397511311651
 30
0.0
 10
251.4854183905752
 20
24.98030049004746
 30
0.0
 10
251.4192380626448
 20
24.98030049004746
 30
0.0
 10
251.4192380626448
 20
24.98030049004746
 30
0.0
 10
251.4192380626448
 20
24.98030049004746
 30
0.0
 10
251.4192380626448
 20
24.98030049004746
 30
0.0
 10
251.3530232837367
 20
24.98030049004746
 30
0.0
 10
251.2993831116453
 20
25.03397511311651
 30
0.0
 10
251.2993831116453
 20
25.10017266653574
 30
0.0
  0
ENDBLK
  5
E6
330
E3
100
AcDbEntity
  8
0
100
AcDbBlockEnd
  0
BLOCK
  5
EA
330
E8
100
AcDbEntity
  8
0
100
AcDbBlockBegin
  2
block 28
 70
     0
 71
     0
 10
0.0
 20
0.0
 30
0.0
  3
block 28
  1

  0
SPLINE
  5
EC
330
E8
100
AcDbEntity
  8
Livello 1
370
     0
100
AcDbSpline
210
0.0
220
0.0
230
1.0
 70
    11
 71
     3
 72
    26
 73
    22
 74
     0
 42
0.0000000001
 43
0.0000000001
 40
0.0
 40
0.0
 40
0.0
 40
0.0
 40
1.0
 40
1.0
 40
1.0
 40
2.0
 40
2.0
 40
2.0
 40
3.0
 40
3.0
 40
3.0
 40
4.0
 40
4.0
 40
4.0
 40
5.0
 40
5.0
 40
5.0
 40
6.0
 40
6.0
 40
6.0
 40
7.0
 40
7.0
 40
7.0
 40
7.0
 10
251.359637871432
 20
25.10117174488555
 30
0.0
 10
251.359637871432
 20
25.129817732743
 30
0.0
 10
251.3828578303207
 20
25.15307214260924
 30
0.0
 10
251.4115210436669
 20
25.15307214260924
 30
0.0
 10
251.4115210436669
 20
25.15307214260924
 30
0.0
 10
251.4115210436669
 20
25.15307214260924
 30
0.0
 10
251.4115210436669
 20
25.15307214260924
 30
0.0
 10
251.4401842570132
 20
25.15307214260924
 30
0.0
 10
251.4634042159018
 20
25.129817732743
 30
0.0
 10
251.4634042159018
 20
25.10117174488555
 30
0.0
 10
251.4634042159018
 20
25.10117174488555
 30
0.0
 10
251.4634042159018
 20
25.10117174488555
 30
0.0
 10
251.4634042159018
 20
25.10117174488555
 30
0.0
 10
251.4634042159018
 20
25.07249130605052
 30
0.0
 10
251.4401842570132
 20
25.04928857265065
 30
0.0
 10
251.4115210436669
 20
25.04928857265065
 30
0.0
 10
251.4115210436669
 20
25.04928857265065
 30
0.0
 10
251.4115210436669
 20
25.04928857265065
 30
0.0
 10
251.4115210436669
 20
25.04928857265065
 30
0.0
 10
251.3828578303207
 20
25.04928857265065
 30
0.0
 10
251.359637871432
 20
25.07249130605052
 30
0.0
 10
251.359637871432
 20
25.10117174488555
 30
0.0
  0
ENDBLK
  5
EB
330
E8
100
AcDbEntity
  8
0
100
AcDbBlockEnd
  0
BLOCK
  5
EF
330
ED
100
AcDbEntity
  8
0
100
AcDbBlockBegin
  2
block 29
 70
     0
 71
     0
 10
0.0
 20
0.0
 30
0.0
  3
block 29
  1

  0
SPLINE
  5
F1
330
ED
100
AcDbEntity
  8
Livello 1
 62
   250
370
     9
100
AcDbSpline
210
0.0
220
0.0
230
1.0
 70
    11
 71
     3
 72
    26
 73
    22
 74
     0
 42
0.0000000001
 43
0.0000000001
 40
0.0
 40
0.0
 40
0.0
 40
0.0
 40
1.0
 40
1.0
 40
1.0
 40
2.0
 40
2.0
 40
2.0
 40
3.0
 40
3.0
 40
3.0
 40
4.0
 40
4.0
 40
4.0
 40
5.0
 40
5.0
 40
5.0
 40
6.0
 40
6.0
 40
6.0
 40
7.0
 40
7.0
 40
7.0
 40
7.0
 10
251.359637871432
 20
25.10117174488555
 30
0.0
 10
251.359637871432
 20
25.129817732743
 30
0.0
 10
251.3828578303207
 20
25.15307214260924
 30
0.0
 10
251.4115210436669
 20
25.15307214260924
 30
0.0
 10
251.4115210436669
 20
25.15307214260924
 30
0.0
 10
251.4115210436669
 20
25.15307214260924
 30
0.0
 10
251.4115210436669
 20
25.15307214260924
 30
0.0
 10
251.4401842570132
 20
25.15307214260924
 30
0.0
 10
251.4634042159018
 20
25.129817732743
 30
0.0
 10
251.4634042159018
 20
25.10117174488555
 30
0.0
 10
251.4634042159018
 20
25.10117174488555
 30
0.0
 10
251.4634042159018
 20
25.10117174488555
 30
0.0
 10
251.4634042159018
 20
25.10117174488555
 30
0.0
 10
251.4634042159018
 20
25.07249130605052
 30
0.0
 10
251.4401842570132
 20
25.04928857265065
 30
0.0
 10
251.4115210436669
 20
25.04928857265065
 30
0.0
 10
251.4115210436669
 20
25.04928857265065
 30
0.0
 10
251.4115210436669
 20
25.04928857265065
 30
0.0
 10
251.4115210436669
 20
25.04928857265065
 30
0.0
 10
251.3828578303207
 20
25.04928857265065
 30
0.0
 10
251.359637871432
 20
25.07249130605052
 30
0.0
 10
251.359637871432
 20
25.10117174488555
 30
0.0
  0
ENDBLK
  5
F0
330
ED
100
AcDbEntity
  8
0
100
AcDbBlockEnd
  0
BLOCK
  5
F4
330
F2
100
AcDbEntity
  8
0
100
AcDbBlockBegin
  2
block 30
 70
     0
 71
     0
 10
0.0
 20
0.0
 30
0.0
  3
block 30
  1

  0
SPLINE
  5
F6
330
F2
100
AcDbEntity
  8
Livello 1
370
     0
100
AcDbSpline
210
0.0
220
0.0
230
1.0
 70
    11
 71
     3
 72
    26
 73
    22
 74
     0
 42
0.0000000001
 43
0.0000000001
 40
0.0
 40
0.0
 40
0.0
 40
0.0
 40
1.0
 40
1.0
 40
1.0
 40
2.0
 40
2.0
 40
2.0
 40
3.0
 40
3.0
 40
3.0
 40
4.0
 40
4.0
 40
4.0
 40
5.0
 40
5.0
 40
5.0
 40
6.0
 40
6.0
 40
6.0
 40
7.0
 40
7.0
 40
7.0
 40
7.0
 10
251.3388983829291
 20
25.32179580530542
 30
0.0
 10
251.3388983829291
 20
25.36692658593471
 30
0.0
 10
251.3754853211187
 20
25.40349629863548
 30
0.0
 10
251.4205471997928
 20
25.40349629863548
 30
0.0
 10
251.4205471997928
 20
25.40349629863548
 30
0.0
 10
251.4205471997928
 20
25.40349629863548
 30
0.0
 10
251.4205471997928
 20
25.40349629863548
 30
0.0
 10
251.4657124313997
 20
25.40349629863548
 30
0.0
 10
251.5022649186116
 20
25.36692658593471
 30
0.0
 10
251.5022649186116
 20
25.32179580530542
 30
0.0
 10
251.5022649186116
 20
25.32179580530542
 30
0.0
 10
251.5022649186116
 20
25.32179580530542
 30
0.0
 10
251.5022649186116
 20
25.32179580530542
 30
0.0
 10
251.5022649186116
 20
25.27668225016491
 30
0.0
 10
251.4657124313997
 20
25.24011253746414
 30
0.0
 10
251.4205471997928
 20
25.24011253746414
 30
0.0
 10
251.4205471997928
 20
25.24011253746414
 30
0.0
 10
251.4205471997928
 20
25.24011253746414
 30
0.0
 10
251.4205471997928
 20
25.24011253746414
 30
0.0
 10
251.3754853211187
 20
25.24011253746414
 30
0.0
 10
251.3388983829291
 20
25.27668225016491
 30
0.0
 10
251.3388983829291
 20
25.32179580530542
 30
0.0
  0
ENDBLK
  5
F5
330
F2
100
AcDbEntity
  8
0
100
AcDbBlockEnd
  0
BLOCK
  5
F9
330
F7
100
AcDbEntity
  8
0
100
AcDbBlockBegin
  2
block 31
 70
     0
 71
     0
 10
0.0
 20
0.0
 30
0.0
  3
block 31
  1

  0
SPLINE
  5
FB
330
F7
100
AcDbEntity
  8
Livello 1
 62
   250
370
     9
100
AcDbSpline
210
0.0
220
0.0
230
1.0
 70
    11
 71
     3
 72
    26
 73
    22
 74
     0
 42
0.0000000001
 43
0.0000000001
 40
0.0
 40
0.0
 40
0.0
 40
0.0
 40
1.0
 40
1.0
 40
1.0
 40
2.0
 40
2.0
 40
2.0
 40
3.0
 40
3.0
 40
3.0
 40
4.0
 40
4.0
 40
4.0
 40
5.0
 40
5.0
 40
5.0
 40
6.0
 40
6.0
 40
6.0
 40
7.0
 40
7.0
 40
7.0
 40
7.0
 10
251.3388983829291
 20
25.32179580530542
 30
0.0
 10
251.3388983829291
 20
25.36692658593471
 30
0.0
 10
251.3754853211187
 20
25.40349629863548
 30
0.0
 10
251.4205471997928
 20
25.40349629863548
 30
0.0
 10
251.4205471997928
 20
25.40349629863548
 30
0.0
 10
251.4205471997928
 20
25.40349629863548
 30
0.0
 10
251.4205471997928
 20
25.40349629863548
 30
0.0
 10
251.4657124313997
 20
25.40349629863548
 30
0.0
 10
251.5022649186116
 20
25.36692658593471
 30
0.0
 10
251.5022649186116
 20
25.32179580530542
 30
0.0
 10
251.5022649186116
 20
25.32179580530542
 30
0.0
 10
251.5022649186116
 20
25.32179580530542
 30
0.0
 10
251.5022649186116
 20
25.32179580530542
 30
0.0
 10
251.5022649186116
 20
25.27668225016491
 30
0.0
 10
251.4657124313997
 20
25.24011253746414
 30
0.0
 10
251.4205471997928
 20
25.24011253746414
 30
0.0
 10
251.4205471997928
 20
25.24011253746414
 30
0.0
 10
251.4205471997928
 20
25.24011253746414
 30
0.0
 10
251.4205471997928
 20
25.24011253746414
 30
0.0
 10
251.3754853211187
 20
25.24011253746414
 30
0.0
 10
251.3388983829291
 20
25.27668225016491
 30
0.0
 10
251.3388983829291
 20
25.32179580530542
 30
0.0
  0
ENDBLK
  5
FA
330
F7
100
AcDbEntity
  8
0
100
AcDbBlockEnd
  0
BLOCK
  5
FE
330
FC
100
AcDbEntity
  8
0
100
AcDbBlockBegin
  2
block 32
 70
     0
 71
     0
 10
0.0
 20
0.0
 30
0.0
  3
block 32
  1

  0
SPLINE
  5
100
330
FC
100
AcDbEntity
  8
Livello 1
370
     0
100
AcDbSpline
210
0.0
220
0.0
230
1.0
 70
    11
 71
     3
 72
    26
 73
    22
 74
     0
 42
0.0000000001
 43
0.0000000001
 40
0.0
 40
0.0
 40
0.0
 40
0.0
 40
1.0
 40
1.0
 40
1.0
 40
2.0
 40
2.0
 40
2.0
 40
3.0
 40
3.0
 40
3.0
 40
4.0
 40
4.0
 40
4.0
 40
5.0
 40
5.0
 40
5.0
 40
6.0
 40
6.0
 40
6.0
 40
7.0
 40
7.0
 40
7.0
 40
7.0
 10
251.3703176744817
 20
25.3201249328928
 30
0.0
 10
251.3703176744817
 20
25.34250084283077
 30
0.0
 10
251.3885077906438
 20
25.36063928252644
 30
0.0
 10
251.4108664750929
 20
25.36063928252644
 30
0.0
 10
251.4108664750929
 20
25.36063928252644
 30
0.0
 10
251.4108664750929
 20
25.36063928252644
 30
0.0
 10
251.4108664750929
 20
25.36063928252644
 30
0.0
 10
251.4332251595421
 20
25.36063928252644
 30
0.0
 10
251.451346373749
 20
25.34250084283077
 30
0.0
 10
251.451346373749
 20
25.3201249328928
 30
0.0
 10
251.451346373749
 20
25.3201249328928
 30
0.0
 10
251.451346373749
 20
25.3201249328928
 30
0.0
 10
251.451346373749
 20
25.3201249328928
 30
0.0
 10
251.451346373749
 20
25.29773179746605
 30
0.0
 10
251.4332251595421
 20
25.27961058325917
 30
0.0
 10
251.4108664750929
 20
25.27961058325917
 30
0.0
 10
251.4108664750929
 20
25.27961058325917
 30
0.0
 10
251.4108664750929
 20
25.27961058325917
 30
0.0
 10
251.4108664750929
 20
25.27961058325917
 30
0.0
 10
251.3885077906438
 20
25.27961058325917
 30
0.0
 10
251.3703176744817
 20
25.29773179746605
 30
0.0
 10
251.3703176744817
 20
25.3201249328928
 30
0.0
  0
ENDBLK
  5
FF
330
FC
100
AcDbEntity
  8
0
100
AcDbBlockEnd
  0
BLOCK
  5
103
330
101
100
AcDbEntity
  8
0
100
AcDbBlockBegin
  2
block 33
 70
     0
 71
     0
 10
0.0
 20
0.0
 30
0.0
  3
block 33
  1

  0
SPLINE
  5
105
330
101
100
AcDbEntity
  8
Livello 1
 62
   250
370
     9
100
AcDbSpline
210
0.0
220
0.0
230
1.0
 70
    11
 71
     3
 72
    26
 73
    22
 74
     0
 42
0.0000000001
 43
0.0000000001
 40
0.0
 40
0.0
 40
0.0
 40
0.0
 40
1.0
 40
1.0
 40
1.0
 40
2.0
 40
2.0
 40
2.0
 40
3.0
 40
3.0
 40
3.0
 40
4.0
 40
4.0
 40
4.0
 40
5.0
 40
5.0
 40
5.0
 40
6.0
 40
6.0
 40
6.0
 40
7.0
 40
7.0
 40
7.0
 40
7.0
 10
251.3703176744817
 20
25.3201249328928
 30
0.0
 10
251.3703176744817
 20
25.34250084283077
 30
0.0
 10
251.3885077906438
 20
25.36063928252644
 30
0.0
 10
251.4108664750929
 20
25.36063928252644
 30
0.0
 10
251.4108664750929
 20
25.36063928252644
 30
0.0
 10
251.4108664750929
 20
25.36063928252644
 30
0.0
 10
251.4108664750929
 20
25.36063928252644
 30
0.0
 10
251.4332251595421
 20
25.36063928252644
 30
0.0
 10
251.451346373749
 20
25.34250084283077
 30
0.0
 10
251.451346373749
 20
25.3201249328928
 30
0.0
 10
251.451346373749
 20
25.3201249328928
 30
0.0
 10
251.451346373749
 20
25.3201249328928
 30
0.0
 10
251.451346373749
 20
25.3201249328928
 30
0.0
 10
251.451346373749
 20
25.29773179746605
 30
0.0
 10
251.4332251595421
 20
25.27961058325917
 30
0.0
 10
251.4108664750929
 20
25.27961058325917
 30
0.0
 10
251.4108664750929
 20
25.27961058325917
 30
0.0
 10
251.4108664750929
 20
25.27961058325917
 30
0.0
 10
251.4108664750929
 20
25.27961058325917
 30
0.0
 10
251.3885077906438
 20
25.27961058325917
 30
0.0
 10
251.3703176744817
 20
25.29773179746605
 30
0.0
 10
251.3703176744817
 20
25.3201249328928
 30
0.0
  0
ENDBLK
  5
104
330
101
100
AcDbEntity
  8
0
100
AcDbBlockEnd
  0
BLOCK
  5
108
330
106
100
AcDbEntity
  8
0
100
AcDbBlockBegin
  2
block 34
 70
     0
 71
     0
 10
0.0
 20
0.0
 30
0.0
  3
block 34
  1

  0
POLYLINE
  5
10A
330
106
100
AcDbEntity
  8
Livello 1
 62
   250
370
     9
100
AcDb2dPolyline
 66
     1
 10
0.0
 20
0.0
 30
0.0
  0
VERTEX
  5
10B
330
10A
100
AcDbEntity
  8
Livello 1
 62
   250
370
     9
100
AcDbVertex
100
AcDb2dVertex
 10
250.588969502976
 20
24.64485132135473
 30
0.0
  0
VERTEX
  5
10C
330
10A
100
AcDbEntity
  8
Livello 1
 62
   250
370
     9
100
AcDbVertex
100
AcDb2dVertex
 10
251.7486583102611
 20
24.64485132135473
 30
0.0
  0
VERTEX
  5
10D
330
10A
100
AcDbEntity
  8
Livello 1
 62
   250
370
     9
100
AcDbVertex
100
AcDb2dVertex
 10
251.7486583102611
 20
24.84573497162148
 30
0.0
  0
VERTEX
  5
10E
330
10A
100
AcDbEntity
  8
Livello 1
 62
   250
370
     9
100
AcDbVertex
100
AcDb2dVertex
 10
250.588969502976
 20
24.84573497162148
 30
0.0
  0
VERTEX
  5
10F
330
10A
100
AcDbEntity
  8
Livello 1
 62
   250
370
     9
100
AcDbVertex
100
AcDb2dVertex
 10
250.588969502976
 20
24.64485132135473
 30
0.0
  0
SEQEND
  5
110
330
10A
100
AcDbEntity
  8
Livello 1
370
     9
  0
ENDBLK
  5
109
330
106
100
AcDbEntity
  8
0
100
AcDbBlockEnd
  0
BLOCK
  5
113
330
111
100
AcDbEntity
  8
0
100
AcDbBlockBegin
  2
block 35
 70
     0
 71
     0
 10
0.0
 20
0.0
 30
0.0
  3
block 35
  1

  0
SPLINE
  5
115
330
111
100
AcDbEntity
  8
Livello 1
370
     0
100
AcDbSpline
210
0.0
220
0.0
230
1.0
 70
     8
 71
     3
 72
    44
 73
    40
 74
     0
 42
0.0000000001
 43
0.0000000001
 40
0.0
 40
0.0
 40
0.0
 40
0.0
 40
1.0
 40
1.0
 40
1.0
 40
2.0
 40
2.0
 40
2.0
 40
3.0
 40
3.0
 40
3.0
 40
4.0
 40
4.0
 40
4.0
 40
5.0
 40
5.0
 40
5.0
 40
6.0
 40
6.0
 40
6.0
 40
7.0
 40
7.0
 40
7.0
 40
8.0
 40
8.0
 40
8.0
 40
9.0
 40
9.0
 40
9.0
 40
10.0
 40
10.0
 40
10.0
 40
11.0
 40
11.0
 40
11.0
 40
12.0
 40
12.0
 40
12.0
 40
13.0
 40
13.0
 40
13.0
 40
13.0
 10
251.3639097926519
 20
26.28110050149864
 30
0.0
 10
251.3639097926519
 20
26.28614756971405
 30
0.0
 10
251.3679750080063
 20
26.29021278506845
 30
0.0
 10
251.3730048507329
 20
26.29021278506845
 30
0.0
 10
251.3730048507329
 20
26.29021278506845
 30
0.0
 10
251.3730048507329
 20
26.29021278506845
 30
0.0
 10
251.3730048507329
 20
26.29021278506845
 30
0.0
 10
251.3730048507329
 20
26.29021278506845
 30
0.0
 10
251.4360156887261
 20
26.29021278506845
 30
0.0
 10
251.4360156887261
 20
26.29021278506845
 30
0.0
 10
251.4360156887261
 20
26.29021278506845
 30
0.0
 10
251.4360156887261
 20
26.29021278506845
 30
0.0
 10
251.4360156887261
 20
26.29021278506845
 30
0.0
 10
251.4410455314527
 20
26.29021278506845
 30
0.0
 10
251.4451451977847
 20
26.28614756971405
 30
0.0
 10
251.4451451977847
 20
26.28110050149864
 30
0.0
 10
251.4451451977847
 20
26.28110050149864
 30
0.0
 10
251.4451451977847
 20
26.28110050149864
 30
0.0
 10
251.4451451977847
 20
26.28110050149864
 30
0.0
 10
251.4451451977847
 20
26.28110050149864
 30
0.0
 10
251.4451451977847
 20
25.68511581486005
 30
0.0
 10
251.4451451977847
 20
25.68511581486005
 30
0.0
 10
251.4451451977847
 20
25.68511581486005
 30
0.0
 10
251.4451451977847
 20
25.68511581486005
 30
0.0
 10
251.4451451977847
 20
25.68511581486005
 30
0.0
 10
251.4451451977847
 20
25.68006874664464
 30
0.0
 10
251.4410455314527
 20
25.67600353129025
 30
0.0
 10
251.4360156887261
 20
25.67600353129025
 30
0.0
 10
251.4360156887261
 20
25.67600353129025
 30
0.0
 10
251.4360156887261
 20
25.67600353129025
 30
0.0
 10
251.4360156887261
 20
25.67600353129025
 30
0.0
 10
251.4360156887261
 20
25.67600353129025
 30
0.0
 10
251.3730048507329
 20
25.67600353129025
 30
0.0
 10
251.3730048507329
 20
25.67600353129025
 30
0.0
 10
251.3730048507329
 20
25.67600353129025
 30
0.0
 10
251.3730048507329
 20
25.67600353129025
 30
0.0
 10
251.3730048507329
 20
25.67600353129025
 30
0.0
 10
251.3679750080063
 20
25.67600353129025
 30
0.0
 10
251.3639097926519
 20
25.68006874664464
 30
0.0
 10
251.3639097926519
 20
25.68511581486005
 30
0.0
  0
ENDBLK
  5
114
330
111
100
AcDbEntity
  8
0
100
AcDbBlockEnd
  0
BLOCK
  5
118
330
116
100
AcDbEntity
  8
0
100
AcDbBlockBegin
  2
block 36
 70
     0
 71
     0
 10
0.0
 20
0.0
 30
0.0
  3
block 36
  1

  0
SPLINE
  5
11A
330
116
100
AcDbEntity
  8
Livello 1
 62
   250
370
     9
100
AcDbSpline
210
0.0
220
0.0
230
1.0
 70
    11
 71
     3
 72
    50
 73
    46
 74
     0
 42
0.0000000001
 43
0.0000000001
 40
0.0
 40
0.0
 40
0.0
 40
0.0
 40
1.0
 40
1.0
 40
1.0
 40
2.0
 40
2.0
 40
2.0
 40
3.0
 40
3.0
 40
3.0
 40
4.0
 40
4.0
 40
4.0
 40
5.0
 40
5.0
 40
5.0
 40
6.0
 40
6.0
 40
6.0
 40
7.0
 40
7.0
 40
7.0
 40
8.0
 40
8.0
 40
8.0
 40
9.0
 40
9.0
 40
9.0
 40
10.0
 40
10.0
 40
10.0
 40
11.0
 40
11.0
 40
11.0
 40
12.0
 40
12.0
 40
12.0
 40
13.0
 40
13.0
 40
13.0
 40
14.0
 40
14.0
 40
14.0
 40
15.0
 40
15.0
 40
15.0
 40
15.0
 10
251.3639097926519
 20
26.28110050149864
 30
0.0
 10
251.3639097926519
 20
26.28614756971405
 30
0.0
 10
251.3679750080063
 20
26.29021278506845
 30
0.0
 10
251.3730048507329
 20
26.29021278506845
 30
0.0
 10
251.3730048507329
 20
26.29021278506845
 30
0.0
 10
251.3730048507329
 20
26.29021278506845
 30
0.0
 10
251.3730048507329
 20
26.29021278506845
 30
0.0
 10
251.3730048507329
 20
26.29021278506845
 30
0.0
 10
251.4360156887261
 20
26.29021278506845
 30
0.0
 10
251.4360156887261
 20
26.29021278506845
 30
0.0
 10
251.4360156887261
 20
26.29021278506845
 30
0.0
 10
251.4360156887261
 20
26.29021278506845
 30
0.0
 10
251.4360156887261
 20
26.29021278506845
 30
0.0
 10
251.4410455314527
 20
26.29021278506845
 30
0.0
 10
251.4451451977847
 20
26.28614756971405
 30
0.0
 10
251.4451451977847
 20
26.28110050149864
 30
0.0
 10
251.4451451977847
 20
26.28110050149864
 30
0.0
 10
251.4451451977847
 20
26.28110050149864
 30
0.0
 10
251.4451451977847
 20
26.28110050149864
 30
0.0
 10
251.4451451977847
 20
26.28110050149864
 30
0.0
 10
251.4451451977847
 20
25.68511581486005
 30
0.0
 10
251.4451451977847
 20
25.68511581486005
 30
0.0
 10
251.4451451977847
 20
25.68511581486005
 30
0.0
 10
251.4451451977847
 20
25.68511581486005
 30
0.0
 10
251.4451451977847
 20
25.68511581486005
 30
0.0
 10
251.4451451977847
 20
25.68006874664464
 30
0.0
 10
251.4410455314527
 20
25.67600353129025
 30
0.0
 10
251.4360156887261
 20
25.67600353129025
 30
0.0
 10
251.4360156887261
 20
25.67600353129025
 30
0.0
 10
251.4360156887261
 20
25.67600353129025
 30
0.0
 10
251.4360156887261
 20
25.67600353129025
 30
0.0
 10
251.4360156887261
 20
25.67600353129025
 30
0.0
 10
251.3730048507329
 20
25.67600353129025
 30
0.0
 10
251.3730048507329
 20
25.67600353129025
 30
0.0
 10
251.3730048507329
 20
25.67600353129025
 30
0.0
 10
251.3730048507329
 20
25.67600353129025
 30
0.0
 10
251.3730048507329
 20
25.67600353129025
 30
0.0
 10
251.3679750080063
 20
25.67600353129025
 30
0.0
 10
251.3639097926519
 20
25.68006874664464
 30
0.0
 10
251.3639097926519
 20
25.68511581486005
 30
0.0
 10
251.3639097926519
 20
25.68511581486005
 30
0.0
 10
251.3639097926519
 20
25.68511581486005
 30
0.0
 10
251.3639097926519
 20
25.68511581486005
 30
0.0
 10
251.3639097926519
 20
25.68511581486005
 30
0.0
 10
251.3639097926519
 20
26.28110050149864
 30
0.0
 10
251.3639097926519
 20
26.28110050149864
 30
0.0
  0
ENDBLK
  5
119
330
116
100
AcDbEntity
  8
0
100
AcDbBlockEnd
  0
BLOCK
  5
11D
330
11B
100
AcDbEntity
  8
0
100
AcDbBlockBegin
  2
block 37
 70
     0
 71
     0
 10
0.0
 20
0.0
 30
0.0
  3
block 37
  1

  0
POLYLINE
  5
11F
330
11B
100
AcDbEntity
  8
Livello 1
370
     0
100
AcDb2dPolyline
 66
     1
 10
0.0
 20
0.0
 30
0.0
  0
VERTEX
  5
120
330
11F
100
AcDbEntity
  8
Livello 1
370
     0
100
AcDbVertex
100
AcDb2dVertex
 10
251.4460409232017
 20
26.18487892111877
 30
0.0
  0
VERTEX
  5
121
330
11F
100
AcDbEntity
  8
Livello 1
370
     0
100
AcDbVertex
100
AcDb2dVertex
 10
251.364805518069
 20
26.18487892111877
 30
0.0
  0
SEQEND
  5
122
330
11F
100
AcDbEntity
  8
Livello 1
370
     0
  0
ENDBLK
  5
11E
330
11B
100
AcDbEntity
  8
0
100
AcDbBlockEnd
  0
BLOCK
  5
125
330
123
100
AcDbEntity
  8
0
100
AcDbBlockBegin
  2
block 38
 70
     0
 71
     0
 10
0.0
 20
0.0
 30
0.0
  3
block 38
  1

  0
POLYLINE
  5
127
330
123
100
AcDbEntity
  8
Livello 1
 62
   250
370
     9
100
AcDb2dPolyline
 66
     1
 10
0.0
 20
0.0
 30
0.0
  0
VERTEX
  5
128
330
127
100
AcDbEntity
  8
Livello 1
 62
   250
370
     9
100
AcDbVertex
100
AcDb2dVertex
 10
251.4460409232017
 20
26.18487892111877
 30
0.0
  0
VERTEX
  5
129
330
127
100
AcDbEntity
  8
Livello 1
 62
   250
370
     9
100
AcDbVertex
100
AcDb2dVertex
 10
251.364805518069
 20
26.18487892111877
 30
0.0
  0
SEQEND
  5
12A
330
127
100
AcDbEntity
  8
Livello 1
370
     9
  0
ENDBLK
  5
126
330
123
100
AcDbEntity
  8
0
100
AcDbBlockEnd
  0
BLOCK
  5
12D
330
12B
100
AcDbEntity
  8
0
100
AcDbBlockBegin
  2
block 39
 70
     0
 71
     0
 10
0.0
 20
0.0
 30
0.0
  3
block 39
  1

  0
SPLINE
  5
12F
330
12B
100
AcDbEntity
  8
Livello 1
370
     0
100
AcDbSpline
210
0.0
220
0.0
230
1.0
 70
     8
 71
     3
 72
    44
 73
    40
 74
     0
 42
0.0000000001
 43
0.0000000001
 40
0.0
 40
0.0
 40
0.0
 40
0.0
 40
1.0
 40
1.0
 40
1.0
 40
2.0
 40
2.0
 40
2.0
 40
3.0
 40
3.0
 40
3.0
 40
4.0
 40
4.0
 40
4.0
 40
5.0
 40
5.0
 40
5.0
 40
6.0
 40
6.0
 40
6.0
 40
7.0
 40
7.0
 40
7.0
 40
8.0
 40
8.0
 40
8.0
 40
9.0
 40
9.0
 40
9.0
 40
10.0
 40
10.0
 40
10.0
 40
11.0
 40
11.0
 40
11.0
 40
12.0
 40
12.0
 40
12.0
 40
13.0
 40
13.0
 40
13.0
 40
13.0
 10
250.1479280880017
 20
26.28110050149864
 30
0.0
 10
250.1479280880017
 20
26.28614756971405
 30
0.0
 10
250.1520277543337
 20
26.29021278506845
 30
0.0
 10
250.1570231460828
 20
26.29021278506845
 30
0.0
 10
250.1570231460828
 20
26.29021278506845
 30
0.0
 10
250.1570231460828
 20
26.29021278506845
 30
0.0
 10
250.1570231460828
 20
26.29021278506845
 30
0.0
 10
250.1570231460828
 20
26.29021278506845
 30
0.0
 10
250.2200684350535
 20
26.29021278506845
 30
0.0
 10
250.2200684350535
 20
26.29021278506845
 30
0.0
 10
250.2200684350535
 20
26.29021278506845
 30
0.0
 10
250.2200684350535
 20
26.29021278506845
 30
0.0
 10
250.2200684350535
 20
26.29021278506845
 30
0.0
 10
250.2250982777801
 20
26.29021278506845
 30
0.0
 10
250.2291634931345
 20
26.28614756971405
 30
0.0
 10
250.2291634931345
 20
26.28110050149864
 30
0.0
 10
250.2291634931345
 20
26.28110050149864
 30
0.0
 10
250.2291634931345
 20
26.28110050149864
 30
0.0
 10
250.2291634931345
 20
26.28110050149864
 30
0.0
 10
250.2291634931345
 20
26.28110050149864
 30
0.0
 10
250.2291634931345
 20
25.68511581486005
 30
0.0
 10
250.2291634931345
 20
25.68511581486005
 30
0.0
 10
250.2291634931345
 20
25.68511581486005
 30
0.0
 10
250.2291634931345
 20
25.68511581486005
 30
0.0
 10
250.2291634931345
 20
25.68511581486005
 30
0.0
 10
250.2291634931345
 20
25.68006874664464
 30
0.0
 10
250.2250982777801
 20
25.67600353129025
 30
0.0
 10
250.2200684350535
 20
25.67600353129025
 30
0.0
 10
250.2200684350535
 20
25.67600353129025
 30
0.0
 10
250.2200684350535
 20
25.67600353129025
 30
0.0
 10
250.2200684350535
 20
25.67600353129025
 30
0.0
 10
250.2200684350535
 20
25.67600353129025
 30
0.0
 10
250.1570231460828
 20
25.67600353129025
 30
0.0
 10
250.1570231460828
 20
25.67600353129025
 30
0.0
 10
250.1570231460828
 20
25.67600353129025
 30
0.0
 10
250.1570231460828
 20
25.67600353129025
 30
0.0
 10
250.1570231460828
 20
25.67600353129025
 30
0.0
 10
250.1520277543337
 20
25.67600353129025
 30
0.0
 10
250.1479280880017
 20
25.68006874664464
 30
0.0
 10
250.1479280880017
 20
25.68511581486005
 30
0.0
  0
ENDBLK
  5
12E
330
12B
100
AcDbEntity
  8
0
100
AcDbBlockEnd
  0
BLOCK
  5
132
330
130
100
AcDbEntity
  8
0
100
AcDbBlockBegin
  2
block 40
 70
     0
 71
     0
 10
0.0
 20
0.0
 30
0.0
  3
block 40
  1

  0
SPLINE
  5
134
330
130
100
AcDbEntity
  8
Livello 1
 62
   250
370
     9
100
AcDbSpline
210
0.0
220
0.0
230
1.0
 70
    11
 71
     3
 72
    50
 73
    46
 74
     0
 42
0.0000000001
 43
0.0000000001
 40
0.0
 40
0.0
 40
0.0
 40
0.0
 40
1.0
 40
1.0
 40
1.0
 40
2.0
 40
2.0
 40
2.0
 40
3.0
 40
3.0
 40
3.0
 40
4.0
 40
4.0
 40
4.0
 40
5.0
 40
5.0
 40
5.0
 40
6.0
 40
6.0
 40
6.0
 40
7.0
 40
7.0
 40
7.0
 40
8.0
 40
8.0
 40
8.0
 40
9.0
 40
9.0
 40
9.0
 40
10.0
 40
10.0
 40
10.0
 40
11.0
 40
11.0
 40
11.0
 40
12.0
 40
12.0
 40
12.0
 40
13.0
 40
13.0
 40
13.0
 40
14.0
 40
14.0
 40
14.0
 40
15.0
 40
15.0
 40
15.0
 40
15.0
 10
250.1479280880017
 20
26.28110050149864
 30
0.0
 10
250.1479280880017
 20
26.28614756971405
 30
0.0
 10
250.1520277543337
 20
26.29021278506845
 30
0.0
 10
250.1570231460828
 20
26.29021278506845
 30
0.0
 10
250.1570231460828
 20
26.29021278506845
 30
0.0
 10
250.1570231460828
 20
26.29021278506845
 30
0.0
 10
250.1570231460828
 20
26.29021278506845
 30
0.0
 10
250.1570231460828
 20
26.29021278506845
 30
0.0
 10
250.2200684350535
 20
26.29021278506845
 30
0.0
 10
250.2200684350535
 20
26.29021278506845
 30
0.0
 10
250.2200684350535
 20
26.29021278506845
 30
0.0
 10
250.2200684350535
 20
26.29021278506845
 30
0.0
 10
250.2200684350535
 20
26.29021278506845
 30
0.0
 10
250.2250982777801
 20
26.29021278506845
 30
0.0
 10
250.2291634931345
 20
26.28614756971405
 30
0.0
 10
250.2291634931345
 20
26.28110050149864
 30
0.0
 10
250.2291634931345
 20
26.28110050149864
 30
0.0
 10
250.2291634931345
 20
26.28110050149864
 30
0.0
 10
250.2291634931345
 20
26.28110050149864
 30
0.0
 10
250.2291634931345
 20
26.28110050149864
 30
0.0
 10
250.2291634931345
 20
25.68511581486005
 30
0.0
 10
250.2291634931345
 20
25.68511581486005
 30
0.0
 10
250.2291634931345
 20
25.68511581486005
 30
0.0
 10
250.2291634931345
 20
25.68511581486005
 30
0.0
 10
250.2291634931345
 20
25.68511581486005
 30
0.0
 10
250.2291634931345
 20
25.68006874664464
 30
0.0
 10
250.2250982777801
 20
25.67600353129025
 30
0.0
 10
250.2200684350535
 20
25.67600353129025
 30
0.0
 10
250.2200684350535
 20
25.67600353129025
 30
0.0
 10
250.2200684350535
 20
25.67600353129025
 30
0.0
 10
250.2200684350535
 20
25.67600353129025
 30
0.0
 10
250.2200684350535
 20
25.67600353129025
 30
0.0
 10
250.1570231460828
 20
25.67600353129025
 30
0.0
 10
250.1570231460828
 20
25.67600353129025
 30
0.0
 10
250.1570231460828
 20
25.67600353129025
 30
0.0
 10
250.1570231460828
 20
25.67600353129025
 30
0.0
 10
250.1570231460828
 20
25.67600353129025
 30
0.0
 10
250.1520277543337
 20
25.67600353129025
 30
0.0
 10
250.1479280880017
 20
25.68006874664464
 30
0.0
 10
250.1479280880017
 20
25.68511581486005
 30
0.0
 10
250.1479280880017
 20
25.68511581486005
 30
0.0
 10
250.1479280880017
 20
25.68511581486005
 30
0.0
 10
250.1479280880017
 20
25.68511581486005
 30
0.0
 10
250.1479280880017
 20
25.68511581486005
 30
0.0
 10
250.1479280880017
 20
26.28110050149864
 30
0.0
 10
250.1479280880017
 20
26.28110050149864
 30
0.0
  0
ENDBLK
  5
133
330
130
100
AcDbEntity
  8
0
100
AcDbBlockEnd
  0
BLOCK
  5
137
330
135
100
AcDbEntity
  8
0
100
AcDbBlockBegin
  2
block 41
 70
     0
 71
     0
 10
0.0
 20
0.0
 30
0.0
  3
block 41
  1

  0
POLYLINE
  5
139
330
135
100
AcDbEntity
  8
Livello 1
370
     0
100
AcDb2dPolyline
 66
     1
 10
0.0
 20
0.0
 30
0.0
  0
VERTEX
  5
13A
330
139
100
AcDbEntity
  8
Livello 1
370
     0
100
AcDbVertex
100
AcDb2dVertex
 10
250.2300592185516
 20
26.18487892111877
 30
0.0
  0
VERTEX
  5
13B
330
139
100
AcDbEntity
  8
Livello 1
370
     0
100
AcDbVertex
100
AcDb2dVertex
 10
250.1488238134188
 20
26.18487892111877
 30
0.0
  0
SEQEND
  5
13C
330
139
100
AcDbEntity
  8
Livello 1
370
     0
  0
ENDBLK
  5
138
330
135
100
AcDbEntity
  8
0
100
AcDbBlockEnd
  0
BLOCK
  5
13F
330
13D
100
AcDbEntity
  8
0
100
AcDbBlockBegin
  2
block 42
 70
     0
 71
     0
 10
0.0
 20
0.0
 30
0.0
  3
block 42
  1

  0
POLYLINE
  5
141
330
13D
100
AcDbEntity
  8
Livello 1
 62
   250
370
     9
100
AcDb2dPolyline
 66
     1
 10
0.0
 20
0.0
 30
0.0
  0
VERTEX
  5
142
330
141
100
AcDbEntity
  8
Livello 1
 62
   250
370
     9
100
AcDbVertex
100
AcDb2dVertex
 10
250.2300592185516
 20
26.18487892111877
 30
0.0
  0
VERTEX
  5
143
330
141
100
AcDbEntity
  8
Livello 1
 62
   250
370
     9
100
AcDbVertex
100
AcDb2dVertex
 10
250.1488238134188
 20
26.18487892111877
 30
0.0
  0
SEQEND
  5
144
330
141
100
AcDbEntity
  8
Livello 1
370
     9
  0
ENDBLK
  5
140
330
13D
100
AcDbEntity
  8
0
100
AcDbBlockEnd
  0
BLOCK
  5
147
330
145
100
AcDbEntity
  8
0
100
AcDbBlockBegin
  2
block 43
 70
     0
 71
     0
 10
0.0
 20
0.0
 30
0.0
  3
block 43
  1

  0
SPLINE
  5
149
330
145
100
AcDbEntity
  8
Livello 1
370
     0
100
AcDbSpline
210
0.0
220
0.0
230
1.0
 70
     8
 71
     3
 72
    32
 73
    28
 74
     0
 42
0.0000000001
 43
0.0000000001
 40
0.0
 40
0.0
 40
0.0
 40
0.0
 40
1.0
 40
1.0
 40
1.0
 40
2.0
 40
2.0
 40
2.0
 40
3.0
 40
3.0
 40
3.0
 40
4.0
 40
4.0
 40
4.0
 40
5.0
 40
5.0
 40
5.0
 40
6.0
 40
6.0
 40
6.0
 40
7.0
 40
7.0
 40
7.0
 40
8.0
 40
8.0
 40
8.0
 40
9.0
 40
9.0
 40
9.0
 40
9.0
 10
249.999737207943
 20
26.30495780347252
 30
0.0
 10
249.999737207943
 20
26.30495780347252
 30
0.0
 10
249.999737207943
 20
26.36591880829965
 30
0.0
 10
249.999737207943
 20
26.36591880829965
 30
0.0
 10
249.999737207943
 20
26.36591880829965
 30
0.0
 10
249.999737207943
 20
26.36591880829965
 30
0.0
 10
249.999737207943
 20
26.36591880829965
 30
0.0
 10
249.999737207943
 20
26.37094865102628
 30
0.0
 10
250.0038196487862
 20
26.37504831735825
 30
0.0
 10
250.0088667170016
 20
26.37504831735825
 30
0.0
 10
250.0088667170016
 20
26.37504831735825
 30
0.0
 10
250.0088667170016
 20
26.37504831735825
 30
0.0
 10
250.0088667170016
 20
26.37504831735825
 30
0.0
 10
250.0088667170016
 20
26.37504831735825
 30
0.0
 10
250.3705158541437
 20
26.37504831735825
 30
0.0
 10
250.3705158541437
 20
26.37504831735825
 30
0.0
 10
250.3705158541437
 20
26.37504831735825
 30
0.0
 10
250.3705158541437
 20
26.37504831735825
 30
0.0
 10
250.3705158541437
 20
26.37504831735825
 30
0.0
 10
250.3755112458927
 20
26.37504831735825
 30
0.0
 10
250.3795764612471
 20
26.37094865102628
 30
0.0
 10
250.3795764612471
 20
26.36591880829965
 30
0.0
 10
250.3795764612471
 20
26.36591880829965
 30
0.0
 10
250.3795764612471
 20
26.36591880829965
 30
0.0
 10
250.3795764612471
 20
26.36591880829965
 30
0.0
 10
250.3795764612471
 20
26.36591880829965
 30
0.0
 10
250.3795764612471
 20
26.30495780347252
 30
0.0
 10
250.3795764612471
 20
26.30495780347252
 30
0.0
  0
ENDBLK
  5
148
330
145
100
AcDbEntity
  8
0
100
AcDbBlockEnd
  0
BLOCK
  5
14C
330
14A
100
AcDbEntity
  8
0
100
AcDbBlockBegin
  2
block 44
 70
     0
 71
     0
 10
0.0
 20
0.0
 30
0.0
  3
block 44
  1

  0
SPLINE
  5
14E
330
14A
100
AcDbEntity
  8
Livello 1
 62
   250
370
     9
100
AcDbSpline
210
0.0
220
0.0
230
1.0
 70
     8
 71
     3
 72
    32
 73
    28
 74
     0
 42
0.0000000001
 43
0.0000000001
 40
0.0
 40
0.0
 40
0.0
 40
0.0
 40
1.0
 40
1.0
 40
1.0
 40
2.0
 40
2.0
 40
2.0
 40
3.0
 40
3.0
 40
3.0
 40
4.0
 40
4.0
 40
4.0
 40
5.0
 40
5.0
 40
5.0
 40
6.0
 40
6.0
 40
6.0
 40
7.0
 40
7.0
 40
7.0
 40
8.0
 40
8.0
 40
8.0
 40
9.0
 40
9.0
 40
9.0
 40
9.0
 10
249.999737207943
 20
26.30495780347252
 30
0.0
 10
249.999737207943
 20
26.30495780347252
 30
0.0
 10
249.999737207943
 20
26.36591880829965
 30
0.0
 10
249.999737207943
 20
26.36591880829965
 30
0.0
 10
249.999737207943
 20
26.36591880829965
 30
0.0
 10
249.999737207943
 20
26.36591880829965
 30
0.0
 10
249.999737207943
 20
26.36591880829965
 30
0.0
 10
249.999737207943
 20
26.37094865102628
 30
0.0
 10
250.0038196487862
 20
26.37504831735825
 30
0.0
 10
250.0088667170016
 20
26.37504831735825
 30
0.0
 10
250.0088667170016
 20
26.37504831735825
 30
0.0
 10
250.0088667170016
 20
26.37504831735825
 30
0.0
 10
250.0088667170016
 20
26.37504831735825
 30
0.0
 10
250.0088667170016
 20
26.37504831735825
 30
0.0
 10
250.3705158541437
 20
26.37504831735825
 30
0.0
 10
250.3705158541437
 20
26.37504831735825
 30
0.0
 10
250.3705158541437
 20
26.37504831735825
 30
0.0
 10
250.3705158541437
 20
26.37504831735825
 30
0.0
 10
250.3705158541437
 20
26.37504831735825
 30
0.0
 10
250.3755112458927
 20
26.37504831735825
 30
0.0
 10
250.3795764612471
 20
26.37094865102628
 30
0.0
 10
250.3795764612471
 20
26.36591880829965
 30
0.0
 10
250.3795764612471
 20
26.36591880829965
 30
0.0
 10
250.3795764612471
 20
26.36591880829965
 30
0.0
 10
250.3795764612471
 20
26.36591880829965
 30
0.0
 10
250.3795764612471
 20
26.36591880829965
 30
0.0
 10
250.3795764612471
 20
26.30495780347252
 30
0.0
 10
250.3795764612471
 20
26.30495780347252
 30
0.0
  0
ENDBLK
  5
14D
330
14A
100
AcDbEntity
  8
0
100
AcDbBlockEnd
  0
BLOCK
  5
151
330
14F
100
AcDbEntity
  8
0
100
AcDbBlockBegin
  2
block 45
 70
     0
 71
     0
 10
0.0
 20
0.0
 30
0.0
  3
block 45
  1

  0
SPLINE
  5
153
330
14F
100
AcDbEntity
  8
Livello 1
370
     0
100
AcDbSpline
210
0.0
220
0.0
230
1.0
 70
     8
 71
     3
 72
    32
 73
    28
 74
     0
 42
0.0000000001
 43
0.0000000001
 40
0.0
 40
0.0
 40
0.0
 40
0.0
 40
1.0
 40
1.0
 40
1.0
 40
2.0
 40
2.0
 40
2.0
 40
3.0
 40
3.0
 40
3.0
 40
4.0
 40
4.0
 40
4.0
 40
5.0
 40
5.0
 40
5.0
 40
6.0
 40
6.0
 40
6.0
 40
7.0
 40
7.0
 40
7.0
 40
8.0
 40
8.0
 40
8.0
 40
9.0
 40
9.0
 40
9.0
 40
9.0
 10
251.2139102362703
 20
26.30495780347252
 30
0.0
 10
251.2139102362703
 20
26.30495780347252
 30
0.0
 10
251.2139102362703
 20
26.36591880829965
 30
0.0
 10
251.2139102362703
 20
26.36591880829965
 30
0.0
 10
251.2139102362703
 20
26.36591880829965
 30
0.0
 10
251.2139102362703
 20
26.36591880829965
 30
0.0
 10
251.2139102362703
 20
26.36591880829965
 30
0.0
 10
251.2139102362703
 20
26.37094865102628
 30
0.0
 10
251.2179754516247
 20
26.37504831735825
 30
0.0
 10
251.2230052943513
 20
26.37504831735825
 30
0.0
 10
251.2230052943513
 20
26.37504831735825
 30
0.0
 10
251.2230052943513
 20
26.37504831735825
 30
0.0
 10
251.2230052943513
 20
26.37504831735825
 30
0.0
 10
251.2230052943513
 20
26.37504831735825
 30
0.0
 10
251.5846716569821
 20
26.37504831735825
 30
0.0
 10
251.5846716569821
 20
26.37504831735825
 30
0.0
 10
251.5846716569821
 20
26.37504831735825
 30
0.0
 10
251.5846716569821
 20
26.37504831735825
 30
0.0
 10
251.5846716569821
 20
26.37504831735825
 30
0.0
 10
251.5897014997087
 20
26.37504831735825
 30
0.0
 10
251.5937667150631
 20
26.37094865102628
 30
0.0
 10
251.5937667150631
 20
26.36591880829965
 30
0.0
 10
251.5937667150631
 20
26.36591880829965
 30
0.0
 10
251.5937667150631
 20
26.36591880829965
 30
0.0
 10
251.5937667150631
 20
26.36591880829965
 30
0.0
 10
251.5937667150631
 20
26.36591880829965
 30
0.0
 10
251.5937667150631
 20
26.30495780347252
 30
0.0
 10
251.5937667150631
 20
26.30495780347252
 30
0.0
  0
ENDBLK
  5
152
330
14F
100
AcDbEntity
  8
0
100
AcDbBlockEnd
  0
BLOCK
  5
156
330
154
100
AcDbEntity
  8
0
100
AcDbBlockBegin
  2
block 46
 70
     0
 71
     0
 10
0.0
 20
0.0
 30
0.0
  3
block 46
  1

  0
SPLINE
  5
158
330
154
100
AcDbEntity
  8
Livello 1
 62
   250
370
     9
100
AcDbSpline
210
0.0
220
0.0
230
1.0
 70
     8
 71
     3
 72
    32
 73
    28
 74
     0
 42
0.0000000001
 43
0.0000000001
 40
0.0
 40
0.0
 40
0.0
 40
0.0
 40
1.0
 40
1.0
 40
1.0
 40
2.0
 40
2.0
 40
2.0
 40
3.0
 40
3.0
 40
3.0
 40
4.0
 40
4.0
 40
4.0
 40
5.0
 40
5.0
 40
5.0
 40
6.0
 40
6.0
 40
6.0
 40
7.0
 40
7.0
 40
7.0
 40
8.0
 40
8.0
 40
8.0
 40
9.0
 40
9.0
 40
9.0
 40
9.0
 10
251.2139102362703
 20
26.30495780347252
 30
0.0
 10
251.2139102362703
 20
26.30495780347252
 30
0.0
 10
251.2139102362703
 20
26.36591880829965
 30
0.0
 10
251.2139102362703
 20
26.36591880829965
 30
0.0
 10
251.2139102362703
 20
26.36591880829965
 30
0.0
 10
251.2139102362703
 20
26.36591880829965
 30
0.0
 10
251.2139102362703
 20
26.36591880829965
 30
0.0
 10
251.2139102362703
 20
26.37094865102628
 30
0.0
 10
251.2179754516247
 20
26.37504831735825
 30
0.0
 10
251.2230052943513
 20
26.37504831735825
 30
0.0
 10
251.2230052943513
 20
26.37504831735825
 30
0.0
 10
251.2230052943513
 20
26.37504831735825
 30
0.0
 10
251.2230052943513
 20
26.37504831735825
 30
0.0
 10
251.2230052943513
 20
26.37504831735825
 30
0.0
 10
251.5846716569821
 20
26.37504831735825
 30
0.0
 10
251.5846716569821
 20
26.37504831735825
 30
0.0
 10
251.5846716569821
 20
26.37504831735825
 30
0.0
 10
251.5846716569821
 20
26.37504831735825
 30
0.0
 10
251.5846716569821
 20
26.37504831735825
 30
0.0
 10
251.5897014997087
 20
26.37504831735825
 30
0.0
 10
251.5937667150631
 20
26.37094865102628
 30
0.0
 10
251.5937667150631
 20
26.36591880829965
 30
0.0
 10
251.5937667150631
 20
26.36591880829965
 30
0.0
 10
251.5937667150631
 20
26.36591880829965
 30
0.0
 10
251.5937667150631
 20
26.36591880829965
 30
0.0
 10
251.5937667150631
 20
26.36591880829965
 30
0.0
 10
251.5937667150631
 20
26.30495780347252
 30
0.0
 10
251.5937667150631
 20
26.30495780347252
 30
0.0
  0
ENDBLK
  5
157
330
154
100
AcDbEntity
  8
0
100
AcDbBlockEnd
  0
BLOCK
  5
15B
330
159
100
AcDbEntity
  8
0
100
AcDbBlockBegin
  2
block 47
 70
     0
 71
     0
 10
0.0
 20
0.0
 30
0.0
  3
block 47
  1

  0
SPLINE
  5
15D
330
159
100
AcDbEntity
  8
Livello 1
370
     0
100
AcDbSpline
210
0.0
220
0.0
230
1.0
 70
     8
 71
     3
 72
    32
 73
    28
 74
     0
 42
0.0000000001
 43
0.0000000001
 40
0.0
 40
0.0
 40
0.0
 40
0.0
 40
1.0
 40
1.0
 40
1.0
 40
2.0
 40
2.0
 40
2.0
 40
3.0
 40
3.0
 40
3.0
 40
4.0
 40
4.0
 40
4.0
 40
5.0
 40
5.0
 40
5.0
 40
6.0
 40
6.0
 40
6.0
 40
7.0
 40
7.0
 40
7.0
 40
8.0
 40
8.0
 40
8.0
 40
9.0
 40
9.0
 40
9.0
 40
9.0
 10
250.7628435868203
 20
26.305164509338
 30
0.0
 10
250.7628435868203
 20
26.305164509338
 30
0.0
 10
250.7628435868203
 20
26.3982855017357
 30
0.0
 10
250.7628435868203
 20
26.3982855017357
 30
0.0
 10
250.7628435868203
 20
26.3982855017357
 30
0.0
 10
250.7628435868203
 20
26.3982855017357
 30
0.0
 10
250.7628435868203
 20
26.3982855017357
 30
0.0
 10
250.7628435868203
 20
26.40331534446233
 30
0.0
 10
250.7668743511971
 20
26.40739778530551
 30
0.0
 10
250.7719730958789
 20
26.40739778530551
 30
0.0
 10
250.7719730958789
 20
26.40739778530551
 30
0.0
 10
250.7719730958789
 20
26.40739778530551
 30
0.0
 10
250.7719730958789
 20
26.40739778530551
 30
0.0
 10
250.7719730958789
 20
26.40739778530551
 30
0.0
 10
250.8213757977281
 20
26.40739778530551
 30
0.0
 10
250.8213757977281
 20
26.40739778530551
 30
0.0
 10
250.8213757977281
 20
26.40739778530551
 30
0.0
 10
250.8213757977281
 20
26.40739778530551
 30
0.0
 10
250.8213757977281
 20
26.40739778530551
 30
0.0
 10
250.8263711894772
 20
26.40739778530551
 30
0.0
 10
250.8304708558091
 20
26.40331534446233
 30
0.0
 10
250.8304708558091
 20
26.3982855017357
 30
0.0
 10
250.8304708558091
 20
26.3982855017357
 30
0.0
 10
250.8304708558091
 20
26.3982855017357
 30
0.0
 10
250.8304708558091
 20
26.3982855017357
 30
0.0
 10
250.8304708558091
 20
26.3982855017357
 30
0.0
 10
250.8304708558091
 20
26.305164509338
 30
0.0
 10
250.8304708558091
 20
26.305164509338
 30
0.0
  0
ENDBLK
  5
15C
330
159
100
AcDbEntity
  8
0
100
AcDbBlockEnd
  0
BLOCK
  5
160
330
15E
100
AcDbEntity
  8
0
100
AcDbBlockBegin
  2
block 48
 70
     0
 71
     0
 10
0.0
 20
0.0
 30
0.0
  3
block 48
  1

  0
SPLINE
  5
162
330
15E
100
AcDbEntity
  8
Livello 1
 62
   250
370
     9
100
AcDbSpline
210
0.0
220
0.0
230
1.0
 70
     8
 71
     3
 72
    32
 73
    28
 74
     0
 42
0.0000000001
 43
0.0000000001
 40
0.0
 40
0.0
 40
0.0
 40
0.0
 40
1.0
 40
1.0
 40
1.0
 40
2.0
 40
2.0
 40
2.0
 40
3.0
 40
3.0
 40
3.0
 40
4.0
 40
4.0
 40
4.0
 40
5.0
 40
5.0
 40
5.0
 40
6.0
 40
6.0
 40
6.0
 40
7.0
 40
7.0
 40
7.0
 40
8.0
 40
8.0
 40
8.0
 40
9.0
 40
9.0
 40
9.0
 40
9.0
 10
250.7628435868203
 20
26.305164509338
 30
0.0
 10
250.7628435868203
 20
26.305164509338
 30
0.0
 10
250.7628435868203
 20
26.3982855017357
 30
0.0
 10
250.7628435868203
 20
26.3982855017357
 30
0.0
 10
250.7628435868203
 20
26.3982855017357
 30
0.0
 10
250.7628435868203
 20
26.3982855017357
 30
0.0
 10
250.7628435868203
 20
26.3982855017357
 30
0.0
 10
250.7628435868203
 20
26.40331534446233
 30
0.0
 10
250.7668743511971
 20
26.40739778530551
 30
0.0
 10
250.7719730958789
 20
26.40739778530551
 30
0.0
 10
250.7719730958789
 20
26.40739778530551
 30
0.0
 10
250.7719730958789
 20
26.40739778530551
 30
0.0
 10
250.7719730958789
 20
26.40739778530551
 30
0.0
 10
250.7719730958789
 20
26.40739778530551
 30
0.0
 10
250.8213757977281
 20
26.40739778530551
 30
0.0
 10
250.8213757977281
 20
26.40739778530551
 30
0.0
 10
250.8213757977281
 20
26.40739778530551
 30
0.0
 10
250.8213757977281
 20
26.40739778530551
 30
0.0
 10
250.8213757977281
 20
26.40739778530551
 30
0.0
 10
250.8263711894772
 20
26.40739778530551
 30
0.0
 10
250.8304708558091
 20
26.40331534446233
 30
0.0
 10
250.8304708558091
 20
26.3982855017357
 30
0.0
 10
250.8304708558091
 20
26.3982855017357
 30
0.0
 10
250.8304708558091
 20
26.3982855017357
 30
0.0
 10
250.8304708558091
 20
26.3982855017357
 30
0.0
 10
250.8304708558091
 20
26.3982855017357
 30
0.0
 10
250.8304708558091
 20
26.305164509338
 30
0.0
 10
250.8304708558091
 20
26.305164509338
 30
0.0
  0
ENDBLK
  5
161
330
15E
100
AcDbEntity
  8
0
100
AcDbBlockEnd
  0
BLOCK
  5
165
330
163
100
AcDbEntity
  8
0
100
AcDbBlockBegin
  2
block 49
 70
     0
 71
     0
 10
0.0
 20
0.0
 30
0.0
  3
block 49
  1

  0
SPLINE
  5
167
330
163
100
AcDbEntity
  8
Livello 1
 62
   255
370
    53
100
AcDbSpline
210
0.0
220
0.0
230
1.0
 70
     8
 71
     3
 72
     8
 73
     4
 74
     0
 42
0.0000000001
 43
0.0000000001
 40
0.0
 40
0.0
 40
0.0
 40
0.0
 40
1.0
 40
1.0
 40
1.0
 40
1.0
 10
250.6445733807895
 20
24.73442386306174
 30
0.0
 10
250.6445733807895
 20
24.73442386306174
 30
0.0
 10
250.667724437723
 20
24.4285680841099
 30
0.0
 10
250.3285545634517
 20
24.04182140980112
 30
0.0
  0
ENDBLK
  5
166
330
163
100
AcDbEntity
  8
0
100
AcDbBlockEnd
  0
BLOCK
  5
16A
330
168
100
AcDbEntity
  8
0
100
AcDbBlockBegin
  2
block 50
 70
     0
 71
     0
 10
0.0
 20
0.0
 30
0.0
  3
block 50
  1

  0
SPLINE
  5
16C
330
168
100
AcDbEntity
  8
Livello 1
 62
   250
370
    53
100
AcDbSpline
210
0.0
220
0.0
230
1.0
 70
     8
 71
     3
 72
     8
 73
     4
 74
     0
 42
0.0000000001
 43
0.0000000001
 40
0.0
 40
0.0
 40
0.0
 40
0.0
 40
1.0
 40
1.0
 40
1.0
 40
1.0
 10
251.0308721923898
 20
24.70848227694428
 30
0.0
 10
251.0308721923898
 20
24.70848227694428
 30
0.0
 10
250.8483164621954
 20
24.38195591144468
 30
0.0
 10
250.402693067203
 20
24.0149840982666
 30
0.0
  0
ENDBLK
  5
16B
330
168
100
AcDbEntity
  8
0
100
AcDbBlockEnd
  0
BLOCK
  5
16F
330
16D
100
AcDbEntity
  8
0
100
AcDbBlockBegin
  2
block 51
 70
     0
 71
     0
 10
0.0
 20
0.0
 30
0.0
  3
block 51
  1

  0
SPLINE
  5
171
330
16D
100
AcDbEntity
  8
Livello 1
370
     0
100
AcDbSpline
210
0.0
220
0.0
230
1.0
 70
    11
 71
     3
 72
    38
 73
    34
 74
     0
 42
0.0000000001
 43
0.0000000001
 40
0.0
 40
0.0
 40
0.0
 40
0.0
 40
1.0
 40
1.0
 40
1.0
 40
2.0
 40
2.0
 40
2.0
 40
3.0
 40
3.0
 40
3.0
 40
4.0
 40
4.0
 40
4.0
 40
5.0
 40
5.0
 40
5.0
 40
6.0
 40
6.0
 40
6.0
 40
7.0
 40
7.0
 40
7.0
 40
8.0
 40
8.0
 40
8.0
 40
9.0
 40
9.0
 40
9.0
 40
10.0
 40
10.0
 40
10.0
 40
11.0
 40
11.0
 40
11.0
 40
11.0
 10
250.927760416494
 20
24.70982586506989
 30
0.0
 10
250.927760416494
 20
24.70982586506989
 30
0.0
 10
250.6257286960535
 20
24.11337609023398
 30
0.0
 10
250.3972153617679
 20
23.99903329564724
 30
0.0
 10
250.3972153617679
 20
23.99903329564724
 30
0.0
 10
250.3972153617679
 20
23.99903329564724
 30
0.0
 10
250.3972153617679
 20
23.99903329564724
 30
0.0
 10
250.3972153617679
 20
23.99903329564724
 30
0.0
 10
250.3629710900537
 20
23.97515876818456
 30
0.0
 10
250.3413703271113
 20
24.0045110010824
 30
0.0
 10
250.3413703271113
 20
24.0045110010824
 30
0.0
 10
250.3413703271113
 20
24.0045110010824
 30
0.0
 10
250.3413703271113
 20
24.0045110010824
 30
0.0
 10
250.3197695641689
 20
24.03382878300265
 30
0.0
 10
250.359422639363
 20
24.04791923283271
 30
0.0
 10
250.359422639363
 20
24.04791923283271
 30
0.0
 10
250.359422639363
 20
24.04791923283271
 30
0.0
 10
250.359422639363
 20
24.04791923283271
 30
0.0
 10
250.359422639363
 20
24.04791923283271
 30
0.0
 10
250.5879359736486
 20
24.16226202741946
 30
0.0
 10
250.8794601459273
 20
24.73418270621868
 30
0.0
 10
250.8794601459273
 20
24.73418270621868
 30
0.0
 10
250.8794601459273
 20
24.73418270621868
 30
0.0
 10
250.8794601459273
 20
24.73418270621868
 30
0.0
 10
250.8794601459273
 20
24.73418270621868
 30
0.0
 10
250.8794601459273
 20
24.73418270621868
 30
0.0
 10
250.8981325757755
 20
24.77107970320645
 30
0.0
 10
250.9223171620364
 20
24.76133007655142
 30
0.0
 10
250.9223171620364
 20
24.76133007655142
 30
0.0
 10
250.9223171620364
 20
24.76133007655142
 30
0.0
 10
250.9223171620364
 20
24.76133007655142
 30
0.0
 10
250.9540120614096
 20
24.74861766582454
 30
0.0
 10
250.927760416494
 20
24.70982586506989
 30
0.0
 10
250.927760416494
 20
24.70982586506989
 30
0.0
  0
ENDBLK
  5
170
330
16D
100
AcDbEntity
  8
0
100
AcDbBlockEnd
  0
BLOCK
  5
174
330
172
100
AcDbEntity
  8
0
100
AcDbBlockBegin
  2
block 52
 70
     0
 71
     0
 10
0.0
 20
0.0
 30
0.0
  3
block 52
  1

  0
SPLINE
  5
176
330
172
100
AcDbEntity
  8
Livello 1
 62
   250
370
     9
100
AcDbSpline
210
0.0
220
0.0
230
1.0
 70
    11
 71
     3
 72
    38
 73
    34
 74
     0
 42
0.0000000001
 43
0.0000000001
 40
0.0
 40
0.0
 40
0.0
 40
0.0
 40
1.0
 40
1.0
 40
1.0
 40
2.0
 40
2.0
 40
2.0
 40
3.0
 40
3.0
 40
3.0
 40
4.0
 40
4.0
 40
4.0
 40
5.0
 40
5.0
 40
5.0
 40
6.0
 40
6.0
 40
6.0
 40
7.0
 40
7.0
 40
7.0
 40
8.0
 40
8.0
 40
8.0
 40
9.0
 40
9.0
 40
9.0
 40
10.0
 40
10.0
 40
10.0
 40
11.0
 40
11.0
 40
11.0
 40
11.0
 10
250.927760416494
 20
24.70982586506989
 30
0.0
 10
250.927760416494
 20
24.70982586506989
 30
0.0
 10
250.6257286960535
 20
24.11337609023398
 30
0.0
 10
250.3972153617679
 20
23.99903329564724
 30
0.0
 10
250.3972153617679
 20
23.99903329564724
 30
0.0
 10
250.3972153617679
 20
23.99903329564724
 30
0.0
 10
250.3972153617679
 20
23.99903329564724
 30
0.0
 10
250.3972153617679
 20
23.99903329564724
 30
0.0
 10
250.3629710900537
 20
23.97515876818456
 30
0.0
 10
250.3413703271113
 20
24.0045110010824
 30
0.0
 10
250.3413703271113
 20
24.0045110010824
 30
0.0
 10
250.3413703271113
 20
24.0045110010824
 30
0.0
 10
250.3413703271113
 20
24.0045110010824
 30
0.0
 10
250.3197695641689
 20
24.03382878300265
 30
0.0
 10
250.359422639363
 20
24.04791923283271
 30
0.0
 10
250.359422639363
 20
24.04791923283271
 30
0.0
 10
250.359422639363
 20
24.04791923283271
 30
0.0
 10
250.359422639363
 20
24.04791923283271
 30
0.0
 10
250.359422639363
 20
24.04791923283271
 30
0.0
 10
250.5879359736486
 20
24.16226202741946
 30
0.0
 10
250.8794601459273
 20
24.73418270621868
 30
0.0
 10
250.8794601459273
 20
24.73418270621868
 30
0.0
 10
250.8794601459273
 20
24.73418270621868
 30
0.0
 10
250.8794601459273
 20
24.73418270621868
 30
0.0
 10
250.8794601459273
 20
24.73418270621868
 30
0.0
 10
250.8794601459273
 20
24.73418270621868
 30
0.0
 10
250.8981325757755
 20
24.77107970320645
 30
0.0
 10
250.9223171620364
 20
24.76133007655142
 30
0.0
 10
250.9223171620364
 20
24.76133007655142
 30
0.0
 10
250.9223171620364
 20
24.76133007655142
 30
0.0
 10
250.9223171620364
 20
24.76133007655142
 30
0.0
 10
250.9540120614096
 20
24.74861766582454
 30
0.0
 10
250.927760416494
 20
24.70982586506989
 30
0.0
 10
250.927760416494
 20
24.70982586506989
 30
0.0
  0
ENDBLK
  5
175
330
172
100
AcDbEntity
  8
0
100
AcDbBlockEnd
  0
BLOCK
  5
179
330
177
100
AcDbEntity
  8
0
100
AcDbBlockBegin
  2
block 53
 70
     0
 71
     0
 10
0.0
 20
0.0
 30
0.0
  3
block 53
  1

  0
SPLINE
  5
17B
330
177
100
AcDbEntity
  8
Livello 1
 62
   254
370
    53
100
AcDbSpline
210
0.0
220
0.0
230
1.0
 70
     8
 71
     3
 72
    14
 73
    10
 74
     0
 42
0.0000000001
 43
0.0000000001
 40
0.0
 40
0.0
 40
0.0
 40
0.0
 40
1.0
 40
1.0
 40
1.0
 40
2.0
 40
2.0
 40
2.0
 40
3.0
 40
3.0
 40
3.0
 40
3.0
 10
250.6473294589959
 20
24.79843377940466
 30
0.0
 10
250.6473294589959
 20
24.79843377940466
 30
0.0
 10
250.7025888270336
 20
24.85476112774734
 30
0.0
 10
250.7579859989816
 20
24.79553989728798
 30
0.0
 10
250.7579859989816
 20
24.79553989728798
 30
0.0
 10
250.7579859989816
 20
24.79553989728798
 30
0.0
 10
250.7579859989816
 20
24.79553989728798
 30
0.0
 10
250.8424597960068
 20
24.7052438850518
 30
0.0
 10
250.7324922755727
 20
24.32793677859984
 30
0.0
 10
250.3473303462326
 20
24.0149840982666
 30
0.0
  0
ENDBLK
  5
17A
330
177
100
AcDbEntity
  8
0
100
AcDbBlockEnd
  0
BLOCK
  5
17E
330
17C
100
AcDbEntity
  8
0
100
AcDbBlockBegin
  2
block 54
 70
     0
 71
     0
 10
0.0
 20
0.0
 30
0.0
  3
block 54
  1

  0
SPLINE
  5
180
330
17C
100
AcDbEntity
  8
Livello 1
 62
   255
370
    53
100
AcDbSpline
210
0.0
220
0.0
230
1.0
 70
     8
 71
     3
 72
     8
 73
     4
 74
     0
 42
0.0000000001
 43
0.0000000001
 40
0.0
 40
0.0
 40
0.0
 40
0.0
 40
1.0
 40
1.0
 40
1.0
 40
1.0
 10
251.5665159917976
 20
23.98001635602329
 30
0.0
 10
251.5665159917976
 20
23.98001635602329
 30
0.0
 10
250.7346971381378
 20
24.29458823230277
 30
0.0
 10
250.3800587749332
 20
23.99679398210456
 30
0.0
  0
ENDBLK
  5
17F
330
17C
100
AcDbEntity
  8
0
100
AcDbBlockEnd
  0
BLOCK
  5
183
330
181
100
AcDbEntity
  8
0
100
AcDbBlockBegin
  2
block 55
 70
     0
 71
     0
 10
0.0
 20
0.0
 30
0.0
  3
block 55
  1

  0
SPLINE
  5
185
330
181
100
AcDbEntity
  8
Livello 1
370
     0
100
AcDbSpline
210
0.0
220
0.0
230
1.0
 70
    11
 71
     3
 72
    32
 73
    28
 74
     0
 42
0.0000000001
 43
0.0000000001
 40
0.0
 40
0.0
 40
0.0
 40
0.0
 40
1.0
 40
1.0
 40
1.0
 40
2.0
 40
2.0
 40
2.0
 40
3.0
 40
3.0
 40
3.0
 40
4.0
 40
4.0
 40
4.0
 40
5.0
 40
5.0
 40
5.0
 40
6.0
 40
6.0
 40
6.0
 40
7.0
 40
7.0
 40
7.0
 40
8.0
 40
8.0
 40
8.0
 40
9.0
 40
9.0
 40
9.0
 40
9.0
 10
250.2920709781949
 20
24.06528252553284
 30
0.0
 10
250.2920709781949
 20
24.06528252553284
 30
0.0
 10
250.3567010121342
 20
24.03823850813284
 30
0.0
 10
250.407033890378
 20
23.96671827867755
 30
0.0
 10
250.407033890378
 20
23.96671827867755
 30
0.0
 10
250.407033890378
 20
23.96671827867755
 30
0.0
 10
250.407033890378
 20
23.96671827867755
 30
0.0
 10
250.407033890378
 20
23.96671827867755
 30
0.0
 10
250.3051623496751
 20
23.84755234722966
 30
0.0
 10
250.3051623496751
 20
23.84755234722966
 30
0.0
 10
250.3051623496751
 20
23.84755234722966
 30
0.0
 10
250.3051623496751
 20
23.84755234722966
 30
0.0
 10
250.3051623496751
 20
23.84755234722966
 30
0.0
 10
250.3051623496751
 20
23.84755234722966
 30
0.0
 10
250.2716070975126
 20
23.83601126974049
 30
0.0
 10
250.2486627464446
 20
23.88930693205615
 30
0.0
 10
250.2486627464446
 20
23.88930693205615
 30
0.0
 10
250.2486627464446
 20
23.88930693205615
 30
0.0
 10
250.2486627464446
 20
23.88930693205615
 30
0.0
 10
250.2248915719146
 20
23.94453184911628
 30
0.0
 10
250.1855141045411
 20
23.94480745693692
 30
0.0
 10
250.1855141045411
 20
23.94480745693692
 30
0.0
 10
250.1855141045411
 20
23.94480745693692
 30
0.0
 10
250.1855141045411
 20
23.94480745693692
 30
0.0
 10
250.1855141045411
 20
23.94480745693692
 30
0.0
 10
250.1855141045411
 20
23.94480745693692
 30
0.0
 10
250.2920709781949
 20
24.06528252553284
 30
0.0
 10
250.2920709781949
 20
24.06528252553284
 30
0.0
  0
ENDBLK
  5
184
330
181
100
AcDbEntity
  8
0
100
AcDbBlockEnd
  0
BLOCK
  5
188
330
186
100
AcDbEntity
  8
0
100
AcDbBlockBegin
  2
block 56
 70
     0
 71
     0
 10
0.0
 20
0.0
 30
0.0
  3
block 56
  1

  0
SPLINE
  5
18A
330
186
100
AcDbEntity
  8
Livello 1
370
     0
100
AcDbSpline
210
0.0
220
0.0
230
1.0
 70
    11
 71
     3
 72
    41
 73
    37
 74
     0
 42
0.0000000001
 43
0.0000000001
 40
0.0
 40
0.0
 40
0.0
 40
0.0
 40
1.0
 40
1.0
 40
1.0
 40
2.0
 40
2.0
 40
2.0
 40
3.0
 40
3.0
 40
3.0
 40
4.0
 40
4.0
 40
4.0
 40
5.0
 40
5.0
 40
5.0
 40
6.0
 40
6.0
 40
6.0
 40
7.0
 40
7.0
 40
7.0
 40
8.0
 40
8.0
 40
8.0
 40
9.0
 40
9.0
 40
9.0
 40
10.0
 40
10.0
 40
10.0
 40
11.0
 40
11.0
 40
11.0
 40
12.0
 40
12.0
 40
12.0
 40
12.0
 10
250.2920709781949
 20
24.0648346628243
 30
0.0
 10
250.2920709781949
 20
24.0648346628243
 30
0.0
 10
250.3567699140894
 20
24.038307410088
 30
0.0
 10
250.4069649884229
 20
23.96661492574482
 30
0.0
 10
250.4069649884229
 20
23.96661492574482
 30
0.0
 10
250.4069649884229
 20
23.96661492574482
 30
0.0
 10
250.4069649884229
 20
23.96661492574482
 30
0.0
 10
250.4069649884229
 20
23.96661492574482
 30
0.0
 10
250.3051968006527
 20
23.84779350407272
 30
0.0
 10
250.3051968006527
 20
23.84779350407272
 30
0.0
 10
250.3051968006527
 20
23.84779350407272
 30
0.0
 10
250.3051968006527
 20
23.84779350407272
 30
0.0
 10
250.3051968006527
 20
23.84779350407272
 30
0.0
 10
250.3051968006527
 20
23.84779350407272
 30
0.0
 10
250.271572646535
 20
23.83601126974049
 30
0.0
 10
250.2485938444894
 20
23.8890657752131
 30
0.0
 10
250.2485938444894
 20
23.8890657752131
 30
0.0
 10
250.2485938444894
 20
23.8890657752131
 30
0.0
 10
250.2485938444894
 20
23.8890657752131
 30
0.0
 10
250.2249260228922
 20
23.94404953543017
 30
0.0
 10
250.1855485555187
 20
23.9450141628024
 30
0.0
 10
250.1855485555187
 20
23.9450141628024
 30
0.0
 10
250.1855485555187
 20
23.9450141628024
 30
0.0
 10
250.1855485555187
 20
23.9450141628024
 30
0.0
 10
250.1855485555187
 20
23.9450141628024
 30
0.0
 10
250.1855485555187
 20
23.9450141628024
 30
0.0
 10
250.2920709781949
 20
24.0648346628243
 30
0.0
 10
250.2920709781949
 20
24.0648346628243
 30
0.0
 10
250.2920709781949
 20
24.0648346628243
 30
0.0
 10
250.2920709781949
 20
24.0648346628243
 30
0.0
 10
250.2920709781949
 20
24.0648346628243
 30
0.0
 10
250.2920709781949
 20
24.0648346628243
 30
0.0
 10
250.2920709781949
 20
24.0648346628243
 30
0.0
 10
250.2920709781949
 20
24.0648346628243
 30
0.0
 10
250.2920709781949
 20
24.0648346628243
 30
0.0
 10
250.2920709781949
 20
24.0648346628243
 30
0.0
 10
250.2920709781949
 20
24.0648346628243
 30
0.0
  0
HATCH
  5
18B
330
186
100
AcDbEntity
  8
Livello 1
 62
   250
100
AcDbHatch
 10
0.0
 20
0.0
 30
0.0
210
0.0
220
0.0
230
1.0
  2
SOLID
 70
     1
 71
     0
 91
        1
 92
        1
 93
        1
 72
     4
 94
        3
 73
     0
 74
     1
 95
       41
 96
       37
 40
0.0
 40
0.0
 40
0.0
 40
0.0
 40
1.0
 40
1.0
 40
1.0
 40
2.0
 40
2.0
 40
2.0
 40
3.0
 40
3.0
 40
3.0
 40
4.0
 40
4.0
 40
4.0
 40
5.0
 40
5.0
 40
5.0
 40
6.0
 40
6.0
 40
6.0
 40
7.0
 40
7.0
 40
7.0
 40
8.0
 40
8.0
 40
8.0
 40
9.0
 40
9.0
 40
9.0
 40
10.0
 40
10.0
 40
10.0
 40
11.0
 40
11.0
 40
11.0
 40
12.0
 40
12.0
 40
12.0
 40
12.0
 10
250.2920709781949
 20
24.0648346628243
 10
250.2920709781949
 20
24.0648346628243
 10
250.3567699140894
 20
24.038307410088
 10
250.4069649884229
 20
23.96661492574482
 10
250.4069649884229
 20
23.96661492574482
 10
250.4069649884229
 20
23.96661492574482
 10
250.4069649884229
 20
23.96661492574482
 10
250.4069649884229
 20
23.96661492574482
 10
250.3051968006527
 20
23.84779350407272
 10
250.3051968006527
 20
23.84779350407272
 10
250.3051968006527
 20
23.84779350407272
 10
250.3051968006527
 20
23.84779350407272
 10
250.3051968006527
 20
23.84779350407272
 10
250.3051968006527
 20
23.84779350407272
 10
250.271572646535
 20
23.83601126974049
 10
250.2485938444894
 20
23.8890657752131
 10
250.2485938444894
 20
23.8890657752131
 10
250.2485938444894
 20
23.8890657752131
 10
250.2485938444894
 20
23.8890657752131
 10
250.2249260228922
 20
23.94404953543017
 10
250.1855485555187
 20
23.9450141628024
 10
250.1855485555187
 20
23.9450141628024
 10
250.1855485555187
 20
23.9450141628024
 10
250.1855485555187
 20
23.9450141628024
 10
250.1855485555187
 20
23.9450141628024
 10
250.1855485555187
 20
23.9450141628024
 10
250.2920709781949
 20
24.0648346628243
 10
250.2920709781949
 20
24.0648346628243
 10
250.2920709781949
 20
24.0648346628243
 10
250.2920709781949
 20
24.0648346628243
 10
250.2920709781949
 20
24.0648346628243
 10
250.2920709781949
 20
24.0648346628243
 10
250.2920709781949
 20
24.0648346628243
 10
250.2920709781949
 20
24.0648346628243
 10
250.2920709781949
 20
24.0648346628243
 10
250.2920709781949
 20
24.0648346628243
 10
250.2920709781949
 20
24.0648346628243
 97
        0
 75
     2
 76
     1
 98
        0
  0
ENDBLK
  5
189
330
186
100
AcDbEntity
  8
0
100
AcDbBlockEnd
  0
BLOCK
  5
18E
330
18C
100
AcDbEntity
  8
0
100
AcDbBlockBegin
  2
block 57
 70
     0
 71
     0
 10
0.0
 20
0.0
 30
0.0
  3
block 57
  1

  0
SPLINE
  5
190
330
18C
100
AcDbEntity
  8
Livello 1
 62
   250
370
     9
100
AcDbSpline
210
0.0
220
0.0
230
1.0
 70
    11
 71
     3
 72
    32
 73
    28
 74
     0
 42
0.0000000001
 43
0.0000000001
 40
0.0
 40
0.0
 40
0.0
 40
0.0
 40
1.0
 40
1.0
 40
1.0
 40
2.0
 40
2.0
 40
2.0
 40
3.0
 40
3.0
 40
3.0
 40
4.0
 40
4.0
 40
4.0
 40
5.0
 40
5.0
 40
5.0
 40
6.0
 40
6.0
 40
6.0
 40
7.0
 40
7.0
 40
7.0
 40
8.0
 40
8.0
 40
8.0
 40
9.0
 40
9.0
 40
9.0
 40
9.0
 10
250.2920709781949
 20
24.06528252553284
 30
0.0
 10
250.2920709781949
 20
24.06528252553284
 30
0.0
 10
250.3567010121342
 20
24.03823850813284
 30
0.0
 10
250.407033890378
 20
23.96671827867755
 30
0.0
 10
250.407033890378
 20
23.96671827867755
 30
0.0
 10
250.407033890378
 20
23.96671827867755
 30
0.0
 10
250.407033890378
 20
23.96671827867755
 30
0.0
 10
250.407033890378
 20
23.96671827867755
 30
0.0
 10
250.3051623496751
 20
23.84755234722966
 30
0.0
 10
250.3051623496751
 20
23.84755234722966
 30
0.0
 10
250.3051623496751
 20
23.84755234722966
 30
0.0
 10
250.3051623496751
 20
23.84755234722966
 30
0.0
 10
250.3051623496751
 20
23.84755234722966
 30
0.0
 10
250.3051623496751
 20
23.84755234722966
 30
0.0
 10
250.2716070975126
 20
23.83601126974049
 30
0.0
 10
250.2486627464446
 20
23.88930693205615
 30
0.0
 10
250.2486627464446
 20
23.88930693205615
 30
0.0
 10
250.2486627464446
 20
23.88930693205615
 30
0.0
 10
250.2486627464446
 20
23.88930693205615
 30
0.0
 10
250.2248915719146
 20
23.94453184911628
 30
0.0
 10
250.1855141045411
 20
23.94480745693692
 30
0.0
 10
250.1855141045411
 20
23.94480745693692
 30
0.0
 10
250.1855141045411
 20
23.94480745693692
 30
0.0
 10
250.1855141045411
 20
23.94480745693692
 30
0.0
 10
250.1855141045411
 20
23.94480745693692
 30
0.0
 10
250.1855141045411
 20
23.94480745693692
 30
0.0
 10
250.2920709781949
 20
24.06528252553284
 30
0.0
 10
250.2920709781949
 20
24.06528252553284
 30
0.0
  0
ENDBLK
  5
18F
330
18C
100
AcDbEntity
  8
0
100
AcDbBlockEnd
  0
BLOCK
  5
193
330
191
100
AcDbEntity
  8
0
100
AcDbBlockBegin
  2
block 58
 70
     0
 71
     0
 10
0.0
 20
0.0
 30
0.0
  3
block 58
  1

  0
SPLINE
  5
195
330
191
100
AcDbEntity
  8
Livello 1
 62
   250
370
   158
100
AcDbSpline
210
0.0
220
0.0
230
1.0
 70
     8
 71
     3
 72
     8
 73
     4
 74
     0
 42
0.0000000001
 43
0.0000000001
 40
0.0
 40
0.0
 40
0.0
 40
0.0
 40
1.0
 40
1.0
 40
1.0
 40
1.0
 10
249.74528228754
 20
23.84786240602788
 30
0.0
 10
249.74528228754
 20
23.84786240602788
 30
0.0
 10
250.2523834520232
 20
23.76931417714635
 30
0.0
 10
250.2952404681322
 20
23.95500494630048
 30
0.0
  0
ENDBLK
  5
194
330
191
100
AcDbEntity
  8
0
100
AcDbBlockEnd
  0
BLOCK
  5
198
330
196
100
AcDbEntity
  8
0
100
AcDbBlockBegin
  2
block 59
 70
     0
 71
     0
 10
0.0
 20
0.0
 30
0.0
  3
block 59
  1

  0
POLYLINE
  5
19A
330
196
100
AcDbEntity
  8
Livello 1
370
     0
100
AcDb2dPolyline
 66
     1
 10
0.0
 20
0.0
 30
0.0
  0
VERTEX
  5
19B
330
19A
100
AcDbEntity
  8
Livello 1
370
     0
100
AcDbVertex
100
AcDb2dVertex
 10
248.0139139582988
 20
23.67733006700877
 30
0.0
  0
VERTEX
  5
19C
330
19A
100
AcDbEntity
  8
Livello 1
370
     0
100
AcDbVertex
100
AcDb2dVertex
 10
248.2528831642798
 20
23.67733006700877
 30
0.0
  0
VERTEX
  5
19D
330
19A
100
AcDbEntity
  8
Livello 1
370
     0
100
AcDbVertex
100
AcDb2dVertex
 10
248.2528831642798
 20
24.00158266798813
 30
0.0
  0
VERTEX
  5
19E
330
19A
100
AcDbEntity
  8
Livello 1
370
     0
100
AcDbVertex
100
AcDb2dVertex
 10
248.0139139582988
 20
24.00158266798813
 30
0.0
  0
VERTEX
  5
19F
330
19A
100
AcDbEntity
  8
Livello 1
370
     0
100
AcDbVertex
100
AcDb2dVertex
 10
248.0139139582988
 20
23.67733006700877
 30
0.0
  0
SEQEND
  5
1A0
330
19A
100
AcDbEntity
  8
Livello 1
370
     0
  0
ENDBLK
  5
199
330
196
100
AcDbEntity
  8
0
100
AcDbBlockEnd
  0
BLOCK
  5
1A3
330
1A1
100
AcDbEntity
  8
0
100
AcDbBlockBegin
  2
block 60
 70
     0
 71
     0
 10
0.0
 20
0.0
 30
0.0
  3
block 60
  1

  0
POLYLINE
  5
1A5
330
1A1
100
AcDbEntity
  8
Livello 1
 62
   250
370
     9
100
AcDb2dPolyline
 66
     1
 10
0.0
 20
0.0
 30
0.0
  0
VERTEX
  5
1A6
330
1A5
100
AcDbEntity
  8
Livello 1
 62
   250
370
     9
100
AcDbVertex
100
AcDb2dVertex
 10
248.0139139582988
 20
23.67733006700877
 30
0.0
  0
VERTEX
  5
1A7
330
1A5
100
AcDbEntity
  8
Livello 1
 62
   250
370
     9
100
AcDbVertex
100
AcDb2dVertex
 10
248.2528831642798
 20
23.67733006700877
 30
0.0
  0
VERTEX
  5
1A8
330
1A5
100
AcDbEntity
  8
Livello 1
 62
   250
370
     9
100
AcDbVertex
100
AcDb2dVertex
 10
248.2528831642798
 20
24.00158266798813
 30
0.0
  0
VERTEX
  5
1A9
330
1A5
100
AcDbEntity
  8
Livello 1
 62
   250
370
     9
100
AcDbVertex
100
AcDb2dVertex
 10
248.0139139582988
 20
24.00158266798813
 30
0.0
  0
VERTEX
  5
1AA
330
1A5
100
AcDbEntity
  8
Livello 1
 62
   250
370
     9
100
AcDbVertex
100
AcDb2dVertex
 10
248.0139139582988
 20
23.67733006700877
 30
0.0
  0
SEQEND
  5
1AB
330
1A5
100
AcDbEntity
  8
Livello 1
370
     9
  0
ENDBLK
  5
1A4
330
1A1
100
AcDbEntity
  8
0
100
AcDbBlockEnd
  0
BLOCK
  5
1AE
330
1AC
100
AcDbEntity
  8
0
100
AcDbBlockBegin
  2
block 61
 70
     0
 71
     0
 10
0.0
 20
0.0
 30
0.0
  3
block 61
  1

  0
POLYLINE
  5
1B0
330
1AC
100
AcDbEntity
  8
Livello 1
370
     0
100
AcDb2dPolyline
 66
     1
 10
0.0
 20
0.0
 30
0.0
  0
VERTEX
  5
1B1
330
1B0
100
AcDbEntity
  8
Livello 1
370
     0
100
AcDbVertex
100
AcDb2dVertex
 10
248.2530554191677
 20
23.58165970227018
 30
0.0
  0
VERTEX
  5
1B2
330
1B0
100
AcDbEntity
  8
Livello 1
370
     0
100
AcDbVertex
100
AcDb2dVertex
 10
248.2530554191677
 20
24.09856216987475
 30
0.0
  0
VERTEX
  5
1B3
330
1B0
100
AcDbEntity
  8
Livello 1
370
     0
100
AcDbVertex
100
AcDb2dVertex
 10
249.3345921838134
 20
24.09725303272672
 30
0.0
  0
VERTEX
  5
1B4
330
1B0
100
AcDbEntity
  8
Livello 1
370
     0
100
AcDbVertex
100
AcDb2dVertex
 10
249.4178085201569
 20
23.98559741439119
 30
0.0
  0
VERTEX
  5
1B5
330
1B0
100
AcDbEntity
  8
Livello 1
370
     0
100
AcDbVertex
100
AcDb2dVertex
 10
249.8341485842066
 20
23.95634853442609
 30
0.0
  0
VERTEX
  5
1B6
330
1B0
100
AcDbEntity
  8
Livello 1
370
     0
100
AcDbVertex
100
AcDb2dVertex
 10
249.8341485842066
 20
23.72256420057081
 30
0.0
  0
VERTEX
  5
1B7
330
1B0
100
AcDbEntity
  8
Livello 1
370
     0
100
AcDbVertex
100
AcDb2dVertex
 10
249.4178085201569
 20
23.69328086962814
 30
0.0
  0
VERTEX
  5
1B8
330
1B0
100
AcDbEntity
  8
Livello 1
370
     0
100
AcDbVertex
100
AcDb2dVertex
 10
249.3345921838134
 20
23.58165970227018
 30
0.0
  0
SEQEND
  5
1B9
330
1B0
100
AcDbEntity
  8
Livello 1
370
     0
  0
ENDBLK
  5
1AF
330
1AC
100
AcDbEntity
  8
0
100
AcDbBlockEnd
  0
BLOCK
  5
1BC
330
1BA
100
AcDbEntity
  8
0
100
AcDbBlockBegin
  2
block 62
 70
     0
 71
     0
 10
0.0
 20
0.0
 30
0.0
  3
block 62
  1

  0
POLYLINE
  5
1BE
330
1BA
100
AcDbEntity
  8
Livello 1
 62
   250
370
     9
100
AcDb2dPolyline
 66
     1
 10
0.0
 20
0.0
 30
0.0
  0
VERTEX
  5
1BF
330
1BE
100
AcDbEntity
  8
Livello 1
 62
   250
370
     9
100
AcDbVertex
100
AcDb2dVertex
 10
248.2530554191677
 20
23.58165970227018
 30
0.0
  0
VERTEX
  5
1C0
330
1BE
100
AcDbEntity
  8
Livello 1
 62
   250
370
     9
100
AcDbVertex
100
AcDb2dVertex
 10
248.2530554191677
 20
24.09856216987475
 30
0.0
  0
VERTEX
  5
1C1
330
1BE
100
AcDbEntity
  8
Livello 1
 62
   250
370
     9
100
AcDbVertex
100
AcDb2dVertex
 10
249.3345921838134
 20
24.09725303272672
 30
0.0
  0
VERTEX
  5
1C2
330
1BE
100
AcDbEntity
  8
Livello 1
 62
   250
370
     9
100
AcDbVertex
100
AcDb2dVertex
 10
249.4178085201569
 20
23.98559741439119
 30
0.0
  0
VERTEX
  5
1C3
330
1BE
100
AcDbEntity
  8
Livello 1
 62
   250
370
     9
100
AcDbVertex
100
AcDb2dVertex
 10
249.8341485842066
 20
23.95634853442609
 30
0.0
  0
VERTEX
  5
1C4
330
1BE
100
AcDbEntity
  8
Livello 1
 62
   250
370
     9
100
AcDbVertex
100
AcDb2dVertex
 10
249.8341485842066
 20
23.72256420057081
 30
0.0
  0
VERTEX
  5
1C5
330
1BE
100
AcDbEntity
  8
Livello 1
 62
   250
370
     9
100
AcDbVertex
100
AcDb2dVertex
 10
249.4178085201569
 20
23.69328086962814
 30
0.0
  0
VERTEX
  5
1C6
330
1BE
100
AcDbEntity
  8
Livello 1
 62
   250
370
     9
100
AcDbVertex
100
AcDb2dVertex
 10
249.3345921838134
 20
23.58165970227018
 30
0.0
  0
VERTEX
  5
1C7
330
1BE
100
AcDbEntity
  8
Livello 1
 62
   250
370
     9
100
AcDbVertex
100
AcDb2dVertex
 10
248.2530554191677
 20
23.58165970227018
 30
0.0
  0
SEQEND
  5
1C8
330
1BE
100
AcDbEntity
  8
Livello 1
370
     9
  0
ENDBLK
  5
1BD
330
1BA
100
AcDbEntity
  8
0
100
AcDbBlockEnd
  0
BLOCK
  5
1CB
330
1C9
100
AcDbEntity
  8
0
100
AcDbBlockBegin
  2
block 63
 70
     0
 71
     0
 10
0.0
 20
0.0
 30
0.0
  3
block 63
  1

  0
POLYLINE
  5
1CD
330
1C9
100
AcDbEntity
  8
Livello 1
370
     0
100
AcDb2dPolyline
 66
     1
 10
0.0
 20
0.0
 30
0.0
  0
VERTEX
  5
1CE
330
1CD
100
AcDbEntity
  8
Livello 1
370
     0
100
AcDbVertex
100
AcDb2dVertex
 10
249.3345921838134
 20
24.09094850382965
 30
0.0
  0
VERTEX
  5
1CF
330
1CD
100
AcDbEntity
  8
Livello 1
370
     0
100
AcDbVertex
100
AcDb2dVertex
 10
249.3345921838134
 20
23.59829952444113
 30
0.0
  0
SEQEND
  5
1D0
330
1CD
100
AcDbEntity
  8
Livello 1
370
     0
  0
ENDBLK
  5
1CC
330
1C9
100
AcDbEntity
  8
0
100
AcDbBlockEnd
  0
BLOCK
  5
1D3
330
1D1
100
AcDbEntity
  8
0
100
AcDbBlockBegin
  2
block 64
 70
     0
 71
     0
 10
0.0
 20
0.0
 30
0.0
  3
block 64
  1

  0
POLYLINE
  5
1D5
330
1D1
100
AcDbEntity
  8
Livello 1
 62
   250
370
     9
100
AcDb2dPolyline
 66
     1
 10
0.0
 20
0.0
 30
0.0
  0
VERTEX
  5
1D6
330
1D5
100
AcDbEntity
  8
Livello 1
 62
   250
370
     9
100
AcDbVertex
100
AcDb2dVertex
 10
249.3345921838134
 20
24.09094850382965
 30
0.0
  0
VERTEX
  5
1D7
330
1D5
100
AcDbEntity
  8
Livello 1
 62
   250
370
     9
100
AcDbVertex
100
AcDb2dVertex
 10
249.3345921838134
 20
23.59829952444113
 30
0.0
  0
SEQEND
  5
1D8
330
1D5
100
AcDbEntity
  8
Livello 1
370
     9
  0
ENDBLK
  5
1D4
330
1D1
100
AcDbEntity
  8
0
100
AcDbBlockEnd
  0
BLOCK
  5
1DB
330
1D9
100
AcDbEntity
  8
0
100
AcDbBlockBegin
  2
block 65
 70
     0
 71
     0
 10
0.0
 20
0.0
 30
0.0
  3
block 65
  1

  0
POLYLINE
  5
1DD
330
1D9
100
AcDbEntity
  8
Livello 1
370
     0
100
AcDb2dPolyline
 66
     1
 10
0.0
 20
0.0
 30
0.0
  0
VERTEX
  5
1DE
330
1DD
100
AcDbEntity
  8
Livello 1
370
     0
100
AcDbVertex
100
AcDb2dVertex
 10
249.4178085201569
 20
23.98559741439119
 30
0.0
  0
VERTEX
  5
1DF
330
1DD
100
AcDbEntity
  8
Livello 1
370
     0
100
AcDbVertex
100
AcDb2dVertex
 10
249.4178085201569
 20
23.70330610410381
 30
0.0
  0
SEQEND
  5
1E0
330
1DD
100
AcDbEntity
  8
Livello 1
370
     0
  0
ENDBLK
  5
1DC
330
1D9
100
AcDbEntity
  8
0
100
AcDbBlockEnd
  0
BLOCK
  5
1E3
330
1E1
100
AcDbEntity
  8
0
100
AcDbBlockBegin
  2
block 66
 70
     0
 71
     0
 10
0.0
 20
0.0
 30
0.0
  3
block 66
  1

  0
POLYLINE
  5
1E5
330
1E1
100
AcDbEntity
  8
Livello 1
 62
   250
370
     9
100
AcDb2dPolyline
 66
     1
 10
0.0
 20
0.0
 30
0.0
  0
VERTEX
  5
1E6
330
1E5
100
AcDbEntity
  8
Livello 1
 62
   250
370
     9
100
AcDbVertex
100
AcDb2dVertex
 10
249.4178085201569
 20
23.98559741439119
 30
0.0
  0
VERTEX
  5
1E7
330
1E5
100
AcDbEntity
  8
Livello 1
 62
   250
370
     9
100
AcDbVertex
100
AcDb2dVertex
 10
249.4178085201569
 20
23.70330610410381
 30
0.0
  0
SEQEND
  5
1E8
330
1E5
100
AcDbEntity
  8
Livello 1
370
     9
  0
ENDBLK
  5
1E4
330
1E1
100
AcDbEntity
  8
0
100
AcDbBlockEnd
  0
BLOCK
  5
1EB
330
1E9
100
AcDbEntity
  8
0
100
AcDbBlockBegin
  2
block 67
 70
     0
 71
     0
 10
0.0
 20
0.0
 30
0.0
  3
block 67
  1

  0
SPLINE
  5
1ED
330
1E9
100
AcDbEntity
  8
Livello 1
370
     0
100
AcDbSpline
210
0.0
220
0.0
230
1.0
 70
     8
 71
     3
 72
    26
 73
    22
 74
     0
 42
0.0000000001
 43
0.0000000001
 40
0.0
 40
0.0
 40
0.0
 40
0.0
 40
1.0
 40
1.0
 40
1.0
 40
2.0
 40
2.0
 40
2.0
 40
3.0
 40
3.0
 40
3.0
 40
4.0
 40
4.0
 40
4.0
 40
5.0
 40
5.0
 40
5.0
 40
6.0
 40
6.0
 40
6.0
 40
7.0
 40
7.0
 40
7.0
 40
7.0
 10
248.1237953512889
 20
23.78416254848317
 30
0.0
 10
248.1517178686172
 20
23.78416254848317
 30
0.0
 10
248.174352160887
 20
23.80676238977539
 30
0.0
 10
248.174352160887
 20
23.83466768161489
 30
0.0
 10
248.174352160887
 20
23.83466768161489
 30
0.0
 10
248.174352160887
 20
23.83466768161489
 30
0.0
 10
248.174352160887
 20
23.83466768161489
 30
0.0
 10
248.174352160887
 20
23.86260742443195
 30
0.0
 10
248.1517178686172
 20
23.88520726572418
 30
0.0
 10
248.1237953512889
 20
23.88520726572418
 30
0.0
 10
248.1237953512889
 20
23.88520726572418
 30
0.0
 10
248.1237953512889
 20
23.88520726572418
 30
0.0
 10
248.1237953512889
 20
23.88520726572418
 30
0.0
 10
248.1237953512889
 20
23.88520726572418
 30
0.0
 10
248.0171006737249
 20
23.88520726572418
 30
0.0
 10
248.0171006737249
 20
23.88520726572418
 30
0.0
 10
248.0171006737249
 20
23.88520726572418
 30
0.0
 10
248.0171006737249
 20
23.88520726572418
 30
0.0
 10
248.0171006737249
 20
23.88520726572418
 30
0.0
 10
248.0171006737249
 20
23.88520726572418
 30
0.0
 10
248.0168250659042
 20
23.78374913675221
 30
0.0
 10
248.0168250659042
 20
23.78374913675221
 30
0.0
  0
ENDBLK
  5
1EC
330
1E9
100
AcDbEntity
  8
0
100
AcDbBlockEnd
  0
BLOCK
  5
1F0
330
1EE
100
AcDbEntity
  8
0
100
AcDbBlockBegin
  2
block 68
 70
     0
 71
     0
 10
0.0
 20
0.0
 30
0.0
  3
block 68
  1

  0
SPLINE
  5
1F2
330
1EE
100
AcDbEntity
  8
Livello 1
 62
   250
370
     9
100
AcDbSpline
210
0.0
220
0.0
230
1.0
 70
    11
 71
     3
 72
    32
 73
    28
 74
     0
 42
0.0000000001
 43
0.0000000001
 40
0.0
 40
0.0
 40
0.0
 40
0.0
 40
1.0
 40
1.0
 40
1.0
 40
2.0
 40
2.0
 40
2.0
 40
3.0
 40
3.0
 40
3.0
 40
4.0
 40
4.0
 40
4.0
 40
5.0
 40
5.0
 40
5.0
 40
6.0
 40
6.0
 40
6.0
 40
7.0
 40
7.0
 40
7.0
 40
8.0
 40
8.0
 40
8.0
 40
9.0
 40
9.0
 40
9.0
 40
9.0
 10
248.1237953512889
 20
23.78416254848317
 30
0.0
 10
248.1517178686172
 20
23.78416254848317
 30
0.0
 10
248.174352160887
 20
23.80676238977539
 30
0.0
 10
248.174352160887
 20
23.83466768161489
 30
0.0
 10
248.174352160887
 20
23.83466768161489
 30
0.0
 10
248.174352160887
 20
23.83466768161489
 30
0.0
 10
248.174352160887
 20
23.83466768161489
 30
0.0
 10
248.174352160887
 20
23.86260742443195
 30
0.0
 10
248.1517178686172
 20
23.88520726572418
 30
0.0
 10
248.1237953512889
 20
23.88520726572418
 30
0.0
 10
248.1237953512889
 20
23.88520726572418
 30
0.0
 10
248.1237953512889
 20
23.88520726572418
 30
0.0
 10
248.1237953512889
 20
23.88520726572418
 30
0.0
 10
248.1237953512889
 20
23.88520726572418
 30
0.0
 10
248.0171006737249
 20
23.88520726572418
 30
0.0
 10
248.0171006737249
 20
23.88520726572418
 30
0.0
 10
248.0171006737249
 20
23.88520726572418
 30
0.0
 10
248.0171006737249
 20
23.88520726572418
 30
0.0
 10
248.0171006737249
 20
23.88520726572418
 30
0.0
 10
248.0171006737249
 20
23.88520726572418
 30
0.0
 10
248.0168250659042
 20
23.78374913675221
 30
0.0
 10
248.0168250659042
 20
23.78374913675221
 30
0.0
 10
248.0168250659042
 20
23.78374913675221
 30
0.0
 10
248.0168250659042
 20
23.78374913675221
 30
0.0
 10
248.0168250659042
 20
23.78374913675221
 30
0.0
 10
248.0168250659042
 20
23.78374913675221
 30
0.0
 10
248.1237953512889
 20
23.78416254848317
 30
0.0
 10
248.1237953512889
 20
23.78416254848317
 30
0.0
  0
ENDBLK
  5
1F1
330
1EE
100
AcDbEntity
  8
0
100
AcDbBlockEnd
  0
BLOCK
  5
1F5
330
1F3
100
AcDbEntity
  8
0
100
AcDbBlockBegin
  2
block 69
 70
     0
 71
     0
 10
0.0
 20
0.0
 30
0.0
  3
block 69
  1

  0
POLYLINE
  5
1F7
330
1F3
100
AcDbEntity
  8
Livello 1
370
     0
100
AcDb2dPolyline
 66
     1
 10
0.0
 20
0.0
 30
0.0
  0
VERTEX
  5
1F8
330
1F7
100
AcDbEntity
  8
Livello 1
370
     0
100
AcDbVertex
100
AcDb2dVertex
 10
248.2611341734101
 20
23.84204019081692
 30
0.0
  0
VERTEX
  5
1F9
330
1F7
100
AcDbEntity
  8
Livello 1
370
     0
100
AcDbVertex
100
AcDb2dVertex
 10
248.5073897611492
 20
23.84204019081692
 30
0.0
  0
SEQEND
  5
1FA
330
1F7
100
AcDbEntity
  8
Livello 1
370
     0
  0
ENDBLK
  5
1F6
330
1F3
100
AcDbEntity
  8
0
100
AcDbBlockEnd
  0
BLOCK
  5
1FD
330
1FB
100
AcDbEntity
  8
0
100
AcDbBlockBegin
  2
block 70
 70
     0
 71
     0
 10
0.0
 20
0.0
 30
0.0
  3
block 70
  1

  0
POLYLINE
  5
1FF
330
1FB
100
AcDbEntity
  8
Livello 1
 62
   250
370
     9
100
AcDb2dPolyline
 66
     1
 10
0.0
 20
0.0
 30
0.0
  0
VERTEX
  5
200
330
1FF
100
AcDbEntity
  8
Livello 1
 62
   250
370
     9
100
AcDbVertex
100
AcDb2dVertex
 10
248.2611341734101
 20
23.84204019081692
 30
0.0
  0
VERTEX
  5
201
330
1FF
100
AcDbEntity
  8
Livello 1
 62
   250
370
     9
100
AcDbVertex
100
AcDb2dVertex
 10
248.5073897611492
 20
23.84204019081692
 30
0.0
  0
SEQEND
  5
202
330
1FF
100
AcDbEntity
  8
Livello 1
370
     9
  0
ENDBLK
  5
1FE
330
1FB
100
AcDbEntity
  8
0
100
AcDbBlockEnd
  0
ENDSEC
  0
SECTION
  2
ENTITIES
  0
INSERT
  5
3D
330
1F
100
AcDbEntity
  8
Livello 1
100
AcDbBlockReference
  2
block 2
 10
0.0
 20
0.0
 30
0.0
  0
ENDSEC
  0
SECTION
  2
OBJECTS
  0
DICTIONARY
  5
C
330
0
100
AcDbDictionary
281
     1
  3
ACAD_GROUP
350
D
  3
ACAD_LAYOUT
350
1A
  3
ACAD_MLINESTYLE
350
17
  3
ACAD_PLOTSETTINGS
350
19
  3
ACAD_PLOTSTYLENAME
350
E
  3
ACAD_TABLESTYLE
350
203
  3
ACAD_VISUALSTYLE
350
2A
  0
DICTIONARY
  5
D
102
{ACAD_REACTORS
330
C
102
}
330
C
100
AcDbDictionary
281
     1
  0
DICTIONARY
  5
1A
102
{ACAD_REACTORS
330
C
102
}
330
C
100
AcDbDictionary
281
     1
  3
Layout1
350
1E
  3
Layout2
350
26
  3
Model
350
22
  0
DICTIONARY
  5
17
102
{ACAD_REACTORS
330
C
102
}
330
C
100
AcDbDictionary
281
     1
  3
Standard
350
18
  0
DICTIONARY
  5
19
102
{ACAD_REACTORS
330
C
102
}
330
C
100
AcDbDictionary
281
     1
  0
ACDBDICTIONARYWDFLT
  5
E
102
{ACAD_REACTORS
330
C
102
}
330
C
100
AcDbDictionary
281
     1
  3
Normal
350
F
100
AcDbDictionaryWithDefault
340
F
  0
DICTIONARY
  5
203
102
{ACAD_REACTORS
330
C
102
}
330
C
100
AcDbDictionary
281
     1
  0
DICTIONARY
  5
2A
102
{ACAD_REACTORS
330
C
102
}
330
C
100
AcDbDictionary
281
     1
  3
2dWireframe
350
2F
  3
3D Hidden
350
31
  3
3dWireframe
350
30
  3
Basic
350
32
  3
Brighten
350
36
  3
ColorChange
350
3A
  3
Conceptual
350
34
  3
Dim
350
35
  3
Facepattern
350
39
  3
Flat
350
2B
  3
FlatWithEdges
350
2C
  3
Gouraud
350
2D
  3
GouraudWithEdges
350
2E
  3
Linepattern
350
38
  3
Realistic
350
33
  3
Thicken
350
37
  0
LAYOUT
  5
1E
102
{ACAD_REACTORS
330
1A
102
}
330
1A
100
AcDbPlotSettings
  1

  2
none_device
  4

  6

 40
0.0
 41
0.0
 42
0.0
 43
0.0
 44
0.0
 45
0.0
 46
0.0
 47
0.0
 48
0.0
 49
0.0
140
0.0
141
0.0
142
1.0
143
1.0
 70
   688
 72
     0
 73
     0
 74
     5
  7

 75
    16
147
1.0
148
0.0
149
0.0
100
AcDbLayout
  1
Layout1
 70
     1
 71
     1
 10
0.0
 20
0.0
 11
12.0
 21
9.0
 12
0.0
 22
0.0
 32
0.0
 14
1.000000000000000E+20
 24
1.000000000000000E+20
 34
1.000000000000000E+20
 15
-1.000000000000000E+20
 25
-1.000000000000000E+20
 35
-1.000000000000000E+20
146
0.0
 13
0.0
 23
0.0
 33
0.0
 16
1.0
 26
0.0
 36
0.0
 17
0.0
 27
1.0
 37
0.0
 76
     0
330
1B
  0
LAYOUT
  5
26
102
{ACAD_REACTORS
330
1A
102
}
330
1A
100
AcDbPlotSettings
  1

  2
none_device
  4

  6

 40
0.0
 41
0.0
 42
0.0
 43
0.0
 44
0.0
 45
0.0
 46
0.0
 47
0.0
 48
0.0
 49
0.0
140
0.0
141
0.0
142
1.0
143
1.0
 70
   688
 72
     0
 73
     0
 74
     5
  7

 75
    16
147
1.0
148
0.0
149
0.0
100
AcDbLayout
  1
Layout2
 70
     1
 71
     2
 10
0.0
 20
0.0
 11
0.0
 21
0.0
 12
0.0
 22
0.0
 32
0.0
 14
0.0
 24
0.0
 34
0.0
 15
0.0
 25
0.0
 35
0.0
146
0.0
 13
0.0
 23
0.0
 33
0.0
 16
1.0
 26
0.0
 36
0.0
 17
0.0
 27
1.0
 37
0.0
 76
     0
330
23
  0
LAYOUT
  5
22
102
{ACAD_REACTORS
330
1A
102
}
330
1A
100
AcDbPlotSettings
  1

  2
none_device
  4

  6

 40
0.0
 41
0.0
 42
0.0
 43
0.0
 44
0.0
 45
0.0
 46
0.0
 47
0.0
 48
0.0
 49
0.0
140
0.0
141
0.0
142
1.0
143
1.0
 70
  1712
 72
     0
 73
     0
 74
     0
  7

 75
     0
147
1.0
148
0.0
149
0.0
100
AcDbLayout
  1
Model
 70
     1
 71
     0
 10
0.0
 20
0.0
 11
12.0
 21
9.0
 12
0.0
 22
0.0
 32
0.0
 14
1.000000000000000E+20
 24
1.000000000000000E+20
 34
1.000000000000000E+20
 15
-1.000000000000000E+20
 25
-1.000000000000000E+20
 35
-1.000000000000000E+20
146
0.0
 13
0.0
 23
0.0
 33
0.0
 16
1.0
 26
0.0
 36
0.0
 17
0.0
 27
1.0
 37
0.0
 76
     0
330
1F
331
29
  0
MLINESTYLE
  5
18
102
{ACAD_REACTORS
330
17
102
}
330
17
100
AcDbMlineStyle
  2
Standard
 70
     0
  3

 62
   256
 51
90.0
 52
90.0
 71
     2
 49
0.5
 62
   256
  6
BYLAYER
 49
-0.5
 62
   256
  6
BYLAYER
  0
ACDBPLACEHOLDER
  5
F
102
{ACAD_REACTORS
330
E
102
}
330
E
  0
VISUALSTYLE
  5
2F
102
{ACAD_REACTORS
330
2A
102
}
330
2A
100
AcDbVisualStyle
  2
2dWireframe
 70
     4
 71
     0
 72
     2
 73
     0
 90
        0
 40
-0.6
 41
-30.0
 62
     5
 63
     7
 74
     1
 91
        4
 64
     7
 65
   257
 75
     1
175
     1
 42
1.0
 92
        0
 66
   257
 43
1.0
 76
     1
 77
     6
 78
     2
 67
     7
 79
     5
170
     0
171
     0
290
     0
174
     0
 93
        1
 44
0.0
173
     0
291
     0
 45
0.0
1001
ACAD
1000
AcDbSavedByObjectVersion
1070
     0
  0
VISUALSTYLE
  5
31
102
{ACAD_REACTORS
330
2A
102
}
330
2A
100
AcDbVisualStyle
  2
3D Hidden
 70
     6
 71
     1
 72
     2
 73
     2
 90
        0
 40
-0.6
 41
-30.0
 62
     5
 63
     7
 74
     2
 91
        2
 64
     7
 65
   257
 75
     2
175
     1
 42
40.0
 92
        0
 66
   257
 43
1.0
 76
     1
 77
     6
 78
     2
 67
     7
 79
     3
170
     0
171
     0
290
     0
174
     0
 93
        1
 44
0.0
173
     0
291
     0
 45
0.0
1001
ACAD
1000
AcDbSavedByObjectVersion
1070
     0
  0
VISUALSTYLE
  5
30
102
{ACAD_REACTORS
330
2A
102
}
330
2A
100
AcDbVisualStyle
  2
3dWireframe
 70
     5
 71
     0
 72
     2
 73
     0
 90
        0
 40
-0.6
 41
-30.0
 62
     5
 63
     7
 74
     1
 91
        4
 64
     7
 65
   257
 75
     1
175
     1
 42
1.0
 92
        0
 66
   257
 43
1.0
 76
     1
 77
     6
 78
     2
 67
     7
 79
     5
170
     0
171
     0
290
     0
174
     0
 93
        1
 44
0.0
173
     0
291
     0
 45
0.0
1001
ACAD
1000
AcDbSavedByObjectVersion
1070
     0
  0
VISUALSTYLE
  5
32
102
{ACAD_REACTORS
330
2A
102
}
330
2A
100
AcDbVisualStyle
  2
Basic
 70
     7
 71
     1
 72
     0
 73
     1
 90
        0
 40
-0.6
 41
-30.0
 62
     5
 63
     7
 74
     0
 91
        4
 64
     7
 65
   257
 75
     1
175
     1
 42
1.0
 92
        8
 66
     7
 43
1.0
 76
     1
 77
     6
 78
     2
 67
     7
 79
     5
170
     0
171
     0
290
     0
174
     0
 93
        1
 44
0.0
173
     0
291
     1
 45
0.0
1001
ACAD
1000
AcDbSavedByObjectVersion
1070
     0
  0
VISUALSTYLE
  5
36
102
{ACAD_REACTORS
330
2A
102
}
330
2A
100
AcDbVisualStyle
  2
Brighten
 70
    12
 71
     2
 72
     2
 73
     0
 90
        0
 40
-0.6
 41
-30.0
 62
     5
 63
     7
 74
     1
 91
        4
 64
     7
 65
   257
 75
     1
175
     1
 42
1.0
 92
        8
 66
     7
 43
1.0
 76
     1
 77
     6
 78
     2
 67
     7
 79
     5
170
     0
171
     0
290
     0
174
     0
 93
        1
 44
50.0
173
     0
291
     1
 45
0.0
1001
ACAD
1000
AcDbSavedByObjectVersion
1070
     0
  0
VISUALSTYLE
  5
3A
102
{ACAD_REACTORS
330
2A
102
}
330
2A
100
AcDbVisualStyle
  2
ColorChange
 70
    16
 71
     2
 72
     2
 73
     3
 90
        0
 40
-0.6
 41
-30.0
 62
     5
 63
     8
 74
     1
 91
        4
 64
     7
 65
   257
 75
     1
175
     1
 42
1.0
 92
        8
 66
     8
 43
1.0
 76
     1
 77
     6
 78
     2
 67
     7
 79
     5
170
     0
171
     0
290
     0
174
     0
 93
        1
 44
0.0
173
     0
291
     1
 45
0.0
1001
ACAD
1000
AcDbSavedByObjectVersion
1070
     0
  0
VISUALSTYLE
  5
34
102
{ACAD_REACTORS
330
2A
102
}
330
2A
100
AcDbVisualStyle
  2
Conceptual
 70
     9
 71
     3
 72
     2
 73
     0
 90
        0
 40
-0.6
 41
-30.0
 62
     5
 63
     7
 74
     2
 91
        2
 64
     7
 65
   257
 75
     1
175
     1
 42
40.0
 92
        8
 66
     7
 43
1.0
 76
     1
 77
     6
 78
     2
 67
     7
 79
     3
170
     0
171
     0
290
     0
174
     0
 93
        1
 44
0.0
173
     0
291
     0
 45
0.0
1001
ACAD
1000
AcDbSavedByObjectVersion
1070
     0
  0
VISUALSTYLE
  5
35
102
{ACAD_REACTORS
330
2A
102
}
330
2A
100
AcDbVisualStyle
  2
Dim
 70
    11
 71
     2
 72
     2
 73
     0
 90
        0
 40
-0.6
 41
-30.0
 62
     5
 63
     7
 74
     1
 91
        4
 64
     7
 65
   257
 75
     1
175
     1
 42
1.0
 92
        8
 66
     7
 43
1.0
 76
     1
 77
     6
 78
     2
 67
     7
 79
     5
170
     0
171
     0
290
     0
174
     0
 93
        1
 44
-50.0
173
     0
291
     1
 45
0.0
1001
ACAD
1000
AcDbSavedByObjectVersion
1070
     0
  0
VISUALSTYLE
  5
39
102
{ACAD_REACTORS
330
2A
102
}
330
2A
100
AcDbVisualStyle
  2
Facepattern
 70
    15
 71
     2
 72
     2
 73
     0
 90
        0
 40
-0.6
 41
-30.0
 62
     5
 63
     7
 74
     1
 91
        4
 64
     7
 65
   257
 75
     1
175
     1
 42
1.0
 92
        8
 66
     7
 43
1.0
 76
     1
 77
     6
 78
     2
 67
     7
 79
     5
170
     0
171
     0
290
     0
174
     0
 93
        1
 44
0.0
173
     0
291
     1
 45
0.0
1001
ACAD
1000
AcDbSavedByObjectVersion
1070
     0
  0
VISUALSTYLE
  5
2B
102
{ACAD_REACTORS
330
2A
102
}
330
2A
100
AcDbVisualStyle
  2
Flat
 70
     0
 71
     2
 72
     1
 73
     1
 90
        2
 40
-0.6
 41
30.0
 62
     5
 63
     7
 74
     0
 91
        4
 64
     7
 65
   257
 75
     1
175
     1
 42
1.0
 92
        8
 66
     7
 43
1.0
 76
     1
 77
     6
 78
     2
 67
     7
 79
     5
170
     0
171
     0
290
     0
174
     0
 93
       13
 44
0.0
173
     0
291
     1
 45
0.0
1001
ACAD
1000
AcDbSavedByObjectVersion
1070
     0
  0
VISUALSTYLE
  5
2C
102
{ACAD_REACTORS
330
2A
102
}
330
2A
100
AcDbVisualStyle
  2
FlatWithEdges
 70
     1
 71
     2
 72
     1
 73
     1
 90
        2
 40
-0.6
 41
30.0
 62
     5
 63
     7
 74
     1
 91
        4
 64
     7
 65
   257
 75
     1
175
     1
 42
1.0
 92
        0
 66
   257
 43
1.0
 76
     1
 77
     6
 78
     2
 67
     7
 79
     5
170
     0
171
     0
290
     0
174
     0
 93
       13
 44
0.0
173
     0
291
     1
 45
0.0
1001
ACAD
1000
AcDbSavedByObjectVersion
1070
     0
  0
VISUALSTYLE
  5
2D
102
{ACAD_REACTORS
330
2A
102
}
330
2A
100
AcDbVisualStyle
  2
Gouraud
 70
     2
 71
     2
 72
     2
 73
     1
 90
        2
 40
-0.6
 41
30.0
 62
     5
 63
     7
 74
     0
 91
        4
 64
     7
 65
   257
 75
     1
175
     1
 42
1.0
 92
        0
 66
     7
 43
1.0
 76
     1
 77
     6
 78
     2
 67
     7
 79
     5
170
     0
171
     0
290
     0
174
     0
 93
       13
 44
0.0
173
     0
291
     1
 45
0.0
1001
ACAD
1000
AcDbSavedByObjectVersion
1070
     0
  0
VISUALSTYLE
  5
2E
102
{ACAD_REACTORS
330
2A
102
}
330
2A
100
AcDbVisualStyle
  2
GouraudWithEdges
 70
     3
 71
     2
 72
     2
 73
     1
 90
        2
 40
-0.6
 41
30.0
 62
     5
 63
     7
 74
     1
 91
        4
 64
     7
 65
   257
 75
     1
175
     1
 42
1.0
 92
        0
 66
   257
 43
1.0
 76
     1
 77
     6
 78
     2
 67
     7
 79
     5
170
     0
171
     0
290
     0
174
     0
 93
       13
 44
0.0
173
     0
291
     1
 45
0.0
1001
ACAD
1000
AcDbSavedByObjectVersion
1070
     0
  0
VISUALSTYLE
  5
38
102
{ACAD_REACTORS
330
2A
102
}
330
2A
100
AcDbVisualStyle
  2
Linepattern
 70
    14
 71
     2
 72
     2
 73
     0
 90
        0
 40
-0.6
 41
-30.0
 62
     5
 63
     7
 74
     1
 91
        4
 64
     7
 65
   257
 75
     7
175
     7
 42
1.0
 92
        8
 66
     7
 43
1.0
 76
     1
 77
     6
 78
     2
 67
     7
 79
     5
170
     0
171
     0
290
     0
174
     0
 93
        1
 44
0.0
173
     0
291
     1
 45
0.0
1001
ACAD
1000
AcDbSavedByObjectVersion
1070
     0
  0
VISUALSTYLE
  5
33
102
{ACAD_REACTORS
330
2A
102
}
330
2A
100
AcDbVisualStyle
  2
Realistic
 70
     8
 71
     2
 72
     2
 73
     0
 90
        0
 40
-0.6
 41
-30.0
 62
     5
 63
     7
 74
     1
 91
        0
 64
     7
 65
   257
 75
     1
175
     1
 42
1.0
 92
        8
 66
     8
 43
1.0
 76
     1
 77
     6
 78
     2
 67
     7
 79
     5
170
     0
171
     0
290
     0
174
     0
 93
       13
 44
0.0
173
     0
291
     0
 45
0.0
1001
ACAD
1000
AcDbSavedByObjectVersion
1070
     0
  0
VISUALSTYLE
  5
37
102
{ACAD_REACTORS
330
2A
102
}
330
2A
100
AcDbVisualStyle
  2
Thicken
 70
    13
 71
     2
 72
     2
 73
     0
 90
        0
 40
-0.6
 41
-30.0
 62
     5
 63
     7
 74
     1
 91
        4
 64
     7
 65
   257
 75
     1
175
     1
 42
1.0
 92
       12
 66
     7
 43
1.0
 76
     1
 77
     6
 78
     2
 67
     7
 79
     5
170
     0
171
     0
290
     0
174
     0
 93
        1
 44
0.0
173
     0
291
     1
 45
0.0
1001
ACAD
1000
AcDbSavedByObjectVersion
1070
     0
  0
ENDSEC
  0
EOF
